Search tabs and chords

Search for song, artist or band

Log in

One click and you are in

Login with Facebook Login with Google

Why sign up and log in

Guitar Tabs Explorer
Led Zeppelin guitar chords for Stairway to heaven

Guitar chords with lyrics

Intro:
   Am chord diagramAmAm


       D chord diagramDD
 There's a  lady who's  sure all that  glitters is  gold

   Am chord diagramAmAm
 and she's  buying a stairway to  hea ven

   D chord diagramDD
 When she  gets there she  knows if the  stores are all  closed

   Am chord diagramAmAm
 with a  word she can get what she  came  for

 D chord diagramDD
 Oh_ __  oh____  and she's  buying a  stairway to  heaven

   Am chord diagramAmAm
 There's a  sign on the  wall but she  wants to be  sure

   F chord diagramFF maj7
 'cause you  know sometimes  words have two  meanings


   D chord diagramDD
 In a  tree by the  brook there's a  songbird who  sings

   Am chord diagramAmAm
 Sometimes  all of her thoughts are  mis given


 Am chord diagramAmAm

 D chord diagramDD
             Oh___ it makes me  wonder

 D chord diagramDD
 Oh___  it   makes me wonder

   Am chord diagramAmAm
 There's a  feeling I  get when I  look to the west

   Am chord diagramAmAm
 and my  spirit is  crying for  lea ving

   Am chord diagramAmAm
 In my  thoughts I have  seen rings of  smoke through the trees

   Am chord diagramAmAm
 and the  voices of  those who stand  loo king

 D chord diagramDD
       Oh___  it makes me wonder

 D chord diagramDD
 Oh___  it  really makes me wonder


 And it's whispered that soon if we all call the tune
 then the piper will lead us to reason
 And the new day will dawn for those who stand long
 and the forest will echo with laughter

 If theres a bristle in your hedgerow dont be alarmed now
 it's just a spring clean for the May queen
 Yes there are two paths you can go by but in the long run
 there's still time to change the road you're on

 Your head is humming and it wont go in case you dont know
 the pipers calling you to join him
 Dear lady can you hear the wind blow and did you know
 your stairway lies on the whispering wind

 C chord diagramCC

For the solo and the remaining lyrics use a Am chord diagramAmAm G chord diagramGG F chord diagramFF G chord diagramGG barre chord
sequence

 And as we wind on down the road
 Our shadows taller than our soul
 There walks the lady we all know
 Who shines white light and wants to know
 how everything still turns to gold
 And if you listen very hard
 the time will come to you at last
 When all are one and one is all
 To be a rock and not to roll


   Am chord diagramAmAm
 And she's  buying a stairway  to  heaven.


Tabs:

E chord diagramEE-------5-7-----7-|-8-----8-2-----2-|-0---------0-----|-----------------|
B chord diagramBB-----5-----5-----|---5-------3-----|---1---1-----1---|-----------------|
G chord diagramGG---5---------5---|-0---5-------2---|-----2---------2-|-0-2-2-----------|
D chord diagramDD-7-------6-------|---------4-------|-3---------------|-----------------|
A chord diagramAA-----------------|-----------------|-----------------|-2-0-0---0--/8-7-|
E chord diagramEE-----------------|-----------------|-----------------|-----------------|

E chord diagramEE---------7-----7-|-8-----8-2-----2-|-0---------0-----|-----------------|
B chord diagramBB-------5---5-----|---5-------3-----|---1---1-----1---|-----------------|
G chord diagramGG-----5-------5---|-0---5-------2---|-----2---------2-|-0-2-2-----------|
D chord diagramDD---7-----6-------|---------4-------|-3---------------|-----------------|
A chord diagramAA-0---------------|-----------------|-----------------|-2-0-0-------0-2-|
E chord diagramEE-----------------|-----------------|-----------------|-----------------|

E chord diagramEE-------0-2-----2-|-0-----0----------|---------3-----3-|-3p2-2-2--------|
B chord diagramBB-----------3-----|---1-----0h1------|-1-----1---0-----|-3p2-3-3--------|
G chord diagramGG-----0-------2---|-----2-------2----|---0---------0---|-2---2-2--------|
D chord diagramDD---2-----0-------|-3----------------|-----2-----------|----------------|
A chord diagramAA-3---------------|---------0----0-2-|-3---------------|-----------0--2-|
E chord diagramEE-----------------|------------------|---------3-------|----------------|

E chord diagramEE---------2-----2-|-0-----0----------|---------------2-|-----------------|
B chord diagramBB-------1---3-----|---1-----0h1------|-------1-----3---|-1-1-1-----------|
G chord diagramGG-----0-------2---|-----2-------2----|-----0-----2-----|-2-2-2-----------|
D chord diagramDD---2-----0-------|-3----------------|---2-----0-------|-3-3-3-----------|
A chord diagramAA-3---------------|---------0----0-2-|-3---------------|-----------------|
E chord diagramEE-----------------|------------------|-----------------|-----------------|


E chord diagramEE-------5-7-----7-|-8-----8-2-----2-|-0---------0-----|-----------------|
B chord diagramBB-----5-----5-----|---5-------3-----|---1---1-----1---|-----------------|
G chord diagramGG---5---------5---|-0---5-------2---|-----2---------2-|-0-2-2-----------|
D chord diagramDD-7-------6-------|---------4-------|-3---------------|-----------------|
A chord diagramAA-----------------|-----------------|-----------------|-2-0-0-----------|
E chord diagramEE-----------------|-----------------|-----------------|-----------------|


E chord diagramEE-------5-7-----7-|-8-----8-2-----2-|-0---------0-----|-----------------|
B chord diagramBB-----5-----5-----|---5-------3-----|---1---1-----1---|-----------------|
G chord diagramGG---5---------5---|-0---5-------2---|-----2---------2-|-0-2-2-----------|
D chord diagramDD-7-------6-------|---------4-------|-3---------------|-----------------|
A chord diagramAA-----------------|-----------------|-----------------|-2-0-0-------0-2-|
E chord diagramEE-----------------|-----------------|-----------------|-----------------|


E chord diagramEE---------2-----2-|-0-----0---------------|---------3-----3-|-3p2-2-2-------|
B chord diagramBB-------1---3-----|---1-------0h1---------|-1-----1---0-----|-3p2-3-3-------|
G chord diagramGG-----0-------2---|-----2---------2-------|---0---------0---|-2---2-2-------|
D chord diagramDD---2-----0-------|-3---------------------|-----2-----------|---------------|
A chord diagramAA-3---------------|-----------0------0-2--|-3---------------|-----------0-2-|
E chord diagramEE-----------------|-----------------------|---------3-------|---------------|


E chord diagramEE-------0-2-----2-|-0-----------------|---------2-----2-|-----------------|
B chord diagramBB-----------3-----|---1--1--0h1-------|-1-----1---3-----|-1-1-1-----------|
G chord diagramGG-----0-------2---|-----2-------2-----|---0---------2---|-0-2-2-----------|
D chord diagramDD---2-----0-------|-3-----------------|-----2---0-------|-3-3-3-----------|
A chord diagramAA-3---------------|---------------0-2-|-3---------------|-----------------|
E chord diagramEE-----------------|-------------------|-----------------|-----------------|


E chord diagramEE-------5-7-----7-|-8-----8-2-----2-|-0---------0-----|-----------------|
B chord diagramBB-----5-----5-----|---5-------3-----|---1---1-----1---|-----------------|
G chord diagramGG---5---------5---|-0---5-------2---|-----2---------2-|-0-2-2-----------|
D chord diagramDD-7-------6-------|---------4-------|-3---------------|-----------------|
A chord diagramAA-----------------|-----------------|-----------------|-2-0-0---0--/8-7-|
E chord diagramEE-----------------|-----------------|-----------------|-----------------|


E chord diagramEE--------5-7---7---|----8-------2------|----0-------0----|-----------------|
B chord diagramBB-----------5-5-5--|---5-5-----3-3-----|---1--1----1-1---|-------------3---|
G chord diagramGG------5-----5---5-|--5---5---2---2----|--2----2--2---2--|-0-2-2-------0---|
D chord diagramDD----7-----6-------|-5-----5-4-----4---|-3-------3-----3-|-------------0---|
A chord diagramAA--0---------------|-------------------|-----------------|-2-0-0-------2---|
E chord diagramEE------------------|-------------------|-----------------|-----------------|

|-3---3-3-3--3--0-0-|-2--2--2-2-2-----|-3--3-3-3--3--0-0---7-|--5---3---5----|
|-1---1-1-1--1--1-3-|-3--3--3-3-3-0-0-|-1--1-1-1--1--1-1---8-|--7---5---7----|
|-2---2-2-2--2--2-2-|-2--2--2-2-2-0-0-|-2--2-2-2--2--2-2---9-|--7---5---7----|
|-2---2-2-2--2--2---|---0-------------|-2--2-2-2--2--2-2---0-|-------------0-|
|-------------------|-----------------|----------------------|-------------0-|
|-------------------|-----------------|----------------------|---------------|

|-3---3-3-3--3--0-0-|-2--2--2-2-------|-3--3-3-3--3--0-0---7-|--5---3---5-----|
|-1---1-1-1--1--1-3-|-3--3--3-3-3-0-0-|-1--1-1-1--1--1-1---8-|--7---5---7-----|
|-2---2-2-2--2--0-2-|-2--2--2-2---0-0-|-2--2-2-2--2--2-2---9-|--7---5---7-----|
|-2---2-2-2--2--2---|0----------------|-2--2-2-2--2--2-2---0-|----------------|
|--------------0-0--|-----------------|----------------------|-------------0-2|
|-------------------|-----------------|----------------------|----------------|


------------------|------------------------|-----------------0--|--0--------|
---------1------3-|-0h1----------1---------|-------1---------0--|--1--------|
-------0------0---|-----2-------2----------|-----0--------0--2--|--2--------|
-----2------0-----|---------2--------------|---2--------0----3--|--2--------|
---3------2-------|-------0----------0--2--|-3--------2------3--|--0---0-2--|
------------------|------------------------|-----------------1--|-----------|


----------------|--------------------|----------------0-|--0------|---------------|
-------1------3-|-0h1---------1------|-------1--------1-|--1------|---------------|
-----0------0---|-----2-----2--------|-----0-------0--2-|--2------|---0-----0-----|
---2------0-----|---------2----------|---2-------0----3-|--2------|--2-----0------|
-3------2-------|-------0------0--2--|-3-------2------3-|--0--0-2-|-3---3-2----2--|
----------------|--------------------|----------------1-|---------|---------------|
repeat a lot of times



|----------5---------------|------------------8--8-|
|------------8-5-----------|-------------8b10------|
|---7b9----------7-5---7p5-|-----------------------|
|--------------------7-----|-7p5-------------------|
|--------------------------|----8------------------|
|--------------------------|-----------------------|

|--8b10---8--5  -----8--10-|-8-----------------------5-------|
|---------------8b10-------|---10-8----8h10------------8-5---|
|--------------------------|--------10-----------7b9-------7-|
|--------------------------|---------------------------------|
|--------------------------|---------------------------------|
|--------------------------|---------------------------------|

|----------------------------|----5------------------------|
|----------------------------|------8-5--------------------|
|-5---7p5------------5---5-5-|----------7-5--7p5-----------|
|---7-----7-5---5-7----7-----|-5------------7----7p5-7p5---|
|-------------7--------------|---------------------------8-|
|----------------------------|-----------------------------|

|---------------------------------------------|
|------------------------------------------13-|
|---------10-------------------12----12-14----|
|------10----12-10----10-12/14----14----------|
|-8/12-------------12-------------------------|
|---------------------------------------------|

|------------------------15b17-15-12----------------|
|--15b17-15-13--15-13-13-------------15b17-15-13----|
|------------------------------------------------14-|
|---------------------------------------------------|
|---------------------------------------------------|
|---------------------------------------------------|

|----------------------------------------------------------------------------|
|-13-15b17b15p13----13-15b17b15p13----13---15b17b15p13----13--15b17b15p13----|
|----------------14----------------14------------------14-----------------14-|
|----------------------------------------------------------------------------|
|----------------------------------------------------------------------------|
|----------------------------------------------------------------------------|

|----------------------------------------------------------------------------|
|-13-15b17b15p13----13--15b17b15p13----13--15b17b15p13----13--15b17b15p13----|
|----------------14-----------------14-----------------14-----------------14-|
|----------------------------------------------------------------------------|
|----------------------------------------------------------------------------|
|----------------------------------------------------------------------------|

|------------------------------------------15b17--|
|-13--15b17b15p13----13---15b17b15p13----13-------|
|-----------------14------------------14----------|
|-------------------------------------------------|
|-------------------------------------------------|
|-------------------------------------------------|

|-b17b15-12---12--------------------------------15--|
|-----------15---15--13----13-15-13---13--15b17-----|
|-----------------------14----------14--------------|
|---------------------------------------------------|
|---------------------------------------------------|
|---------------------------------------------------|

-----------------------------|-----------17----------------------------------|
-15b17b15p13----13/12--13/10-|--------20----20-20----------------------------|
-------------14--------------|--19b21-21----------19b21b19p17---19--17----19-|
-----------------------------|--------------------------------19-------19----|
-----------------------------|-----------------------------------------------|
-----------------------------|-----------------------------------------------|

|--------------------|--------------------------------|--------------|
|--------------------|--------------------------------|--------------|
|-19b21--13/12 13/10-|--14b17--14b17-14--12--14--12-12b14------------|
|--------------------|--------------------------------|--------------|
|--------------------|--------------------------------|--------------|
|--------------------|--------------------------------|--------------|

|-----------------------------------|----------8/7--8/5--|
|-----------------------------------|--------------------|
|-10b14----10b12b10-9-7----7--------|-7-9-7--------------|
|-----------------------10----10----|-------10-7---------|
|-----------------------------------|--------------------|
|-----------------------------------|--------------------|

|----20-p17------20-p17------20-p17------20-p17------20-p17-----20b22-|
|-17--------17----------17----------17----------17----------17--------|
|---------------------------------------------------------------------|
|---------------------------------------------------------------------|
|---------------------------------------------------------------------|
|---------------------------------------------------------------------|



  G chord diagramGG
|-5------------3----------------|-1--3-|-5------------3-------------|--1--3-|
|-5------------3----------------|-1--3-|-5------------3-------------|--1--3-|
|-5------------4----------------|-2--4-|-5------------4-------------|--2--4-|
|-7------------5----------------|-3--5-|-7------------5-------------|--3--5-|
|-7------------5----------------|-3--5-|-7------------5-------------|--3--5-|
|-5------------3----------------|-1--4-|-5------------3-------------|--1--4-|

  G chord diagramGG
|-5------------3-------------|-1--3--|-5------------3----------|
|-5------------3-------------|-1--3--|-5------------3----------|
|-5------------4-------------|-2--4--|-5------------4----------|
|-7------------5-------------|-3--5--|-7------------5----------|
|-7------------5-------------|-3--5--|-7------------5----------|
|-5------------3-------------|-1--4--|-5------------3----------|


  G chord diagramGG
--1-----------------------3--|-------------------------------|
--1-----------------------3--|-------------------------------|
--2-----------------------4--|-------------------------------|
--3-----------------------5--|-------------------------------|
--3----------3--5h7--5--3-5--|-------------------------------|
--1----1-3h5--------------3--|-5---5--------3--3-------------|


                      G chord diagramGG
|---------------------5------------3-------------|-1--3--|-5------3----------|
|---------------------5------------3-------------|-1--3--|-5------3----------|
|---------------------5------------4-------------|-2--4--|-5------4----------|
|---------------------7------------5-------------|-3--5--|-7------5----------|
|-------3--5h7--5--3--7------------5-------------|-3--5--|-7------5----------|
|-1-3h5---------------5------------3-------------|-1--4--|-5-5----3--3-------|


   F chord diagramFF
|--1------------------------|----------0-|---0-0-0-0------|
|--1------------------------|----------1-|---1-1-1-1------|
|--2------------------------|----------2-|---2-2-2-2------|
|--3------------------------|----------3-|---3-3-3-3------|
|--3----------3--5h7--5--3--|------------|----------------|
|--1----1-3h5---------------|-5-5--3-3-1-|-1----------5-5-|


 Fmaj7 chord diagramFmaj7Fmaj7
|-----------0-|-0-0-0-0------|--------8-10-----|-------------------------|
|-----------1-|-1-1-1-0------|-8/10--------10--|--8h10p10----------3-3---|
|-----------2-|-2-2-2-0------|-----------------|-----------------5b7-2---|
|-----------3-|-3-3-3-0------|-----------------|---------------------3---|
|-------------|--------------|-----------------|-------------------------|
|-5-5--3-3--1-|--------------|-----------------|-------------------------|


Am7 chord diagramAm7Am7/G chord diagramGG
----------------------0--|-------------------|-------------------------|
----5-------8------10-3--|-----13-------12---|-----13------12------13--|
--7b9----10b12--12b14-0--|--15b17----14b16---|--15b17---14b16---15b17__|
----------------------0--|-------------------|-------------------------|
-------------------------|-------------------|-------------------------|
-------------------------|-------------------|-------------------------|
 Fmaj7 chord diagramFmaj7Fmaj7
|------------------------------------------|
|-13------12-------13------15--------------|
__17---14b16----15b17---17b19--------------|
|------------------------------------------|
|------------------------------------------|
|------------------------------------------|

slow
Fmaj7 chord diagramFmaj7Fmaj7
----------------------|-0---------------------------------------------|
----13------12-----15-|-1----13---------------------------------------|
-15b17---14b16--17b19-|-2-15b17---------------------------------------|
----------------------|-3---------------------------------------------|
----------------------|-----------------------------------------------|

Other versions of Stairway To Heaven

Stairway to heaven (Ver. 2)Chords
Stairway to heaven (Ver. 3)Chords
Stairway soloTabs
Stairway to heavenTabs
Stairway to heaven - soloChords
Stairway to heaven (Ver. 2)Tabs
Stairway to heaven easyTabs
Stairway to heaven introTabs
Stairway to heaven intro(Ver. 2)Tabs
Stairway To Heaven Live at Madison Sqaure GardensTabs

Almost there ...

Sign in to get your own page with links to favourite songs and more. You are just one click away...

Login with Facebook Login with Google