Log in

One click and you are in

Login with Facebook Login with Google

Why sign up and log in

Guitar Tabs Explorer
Led Zeppelin guitar chords for Stairway to heaven (Ver. 5)

Stairway To Heaven chords by Led Zeppelin (Ver. 5)

Led Zeppelin guitar chords for Stairway to heaven (Ver. 5)

Guitar chords with lyrics

Intro - Primeira Parte: 2x:

   A chord diagramA minorAm       E13-/G#  A chord diagramC/GC/G      A chord diagramD/F#D/F#
E|-------5--7-----7--8-----8--2-----2-------|
B|------------5--------5--------3-----------|
G|---5----------5--------5--------2---------|
D|-7--------6--------5--------4-------------|
A|------------------------------------------|
E|------------------------------------------|

   F7M           A chord diagramG/BG/B  A chord diagramA minorAm
E|-0-------0--------------------------------|
B|---1---1---1----0---1--1------------------|
G|-----2-------2--0---2--2------------------|
D|-3--------------0---2--2------------------|
A|----------------2---0--0--0-2/8-7---------|
E|------------------------------------------|

   A chord diagramA minorAm       E13-/G#  A chord diagramC/GC/G      A chord diagramD/F#D/F#
E|----------7-----7--8-----8--2-----2-------|
B|-------5----5--------5--------3-----------|
G|-----5--------5--------5--------2---------|
D|---7------6--------5--------4-------------|
A|-0----------------------------------------|
E|------------------------------------------|

   F7M           A chord diagramG/BG/B  A chord diagramA minorAm
E|-0-------0--------------------------------|
B|---1---1---1----0---1---1-----------------|
G|-----2-------2--0---2---2-----------------|
D|-3--------------0---2---2-----------------|
A|----------------2---0---0-----------------|
E|------------------------------------------|


Intro - Segunda Parte:

   A chord diagramC majorC           A chord diagramD MajorD        F7M      A chord diagramA minorAm
E|-------------2-----2--0-----0-------------|
B|-----------1---3--------1------0h1--------|
G|---------0--------2--------2--------2-----|
D|-------2-----0--------3-------------------|
A|-0-2-3-------------------------0----------|
E|------------------------------------------|

   A chord diagramC majorC            A chord diagramG MajorG        D4  A chord diagramD MajorD
E|--------------3-----3--3p2-2-2------------|
B|-----1-----1----0------3---3-3------------|
G|-------0----------0----2---2-2------------|
D|---------2-------------0-----0------------|
A|-0-2-3------------------------------------|
E|--------------3---------------------------|

   A chord diagramC majorC            A chord diagramD MajorD        F7M      A chord diagramA minorAm
E|--------------2-----2--0-----0------------|
B|-----------1----3--------1------0h1-------|
G|---------0--------2--------2--------2-----|
D|-------2------0--------3------------------|
A|-0-2-3--------------------------0---------|
E|------------------------------------------|

    A chord diagramC majorC            A chord diagramD MajorD        F7M
E|--------------------2--0-0-0--------------|
B|-----------1------3----1-1-1--------------|
G|---------0------2------2-2-2--------------|
D|-------2------0--------3-3-3--------------|
A|-0-2-3------------------------------------|
E|------------------------------------------|

Primeira Parte:

           A chord diagramA minorAm         E13-/G#
There's a lady who's sure
           A chord diagramC/GC/G        A chord diagramD/F#D/F#
All that glitters is gold
           F7M                    A chord diagramG/BG/B  A chord diagramA minorAm
And she's buying the stairway to hea__ven

          A chord diagramA minorAm              E13-/G#
When she gets there she knows
         A chord diagramC/GC/G            A chord diagramD/F#D/F#
If the stores are all closed
        F7M                       A chord diagramG/BG/B  A chord diagramA minorAm
With a word she can get what she came for

Segunda Parte:

A chord diagramC majorC   A chord diagramD MajorD   F7M  A chord diagramA minorAm
  Uuuhh
           A chord diagramC majorC         A chord diagramG MajorG          D4   A chord diagramD MajorD
And she's buying a stairway to hea__ven
           A chord diagramC majorC           A chord diagramD MajorD
There's a sign on the wall
         F7M         A chord diagramA minorAm
But she wants to be sure
             A chord diagramC majorC             A chord diagramD MajorD              F7M
'Cause you know sometimes words have two meanings

Primeira Parte - Variação na letra:

       A chord diagramA minorAm          E13-/G#
In a tree by the brook
           A chord diagramC/GC/G          A chord diagramD/F#D/F#
There's a songbird who sings
          F7M                         A chord diagramG/BG/B  A chord diagramA minorAm
Sometimes all of our thoughts are misgi___ven

( A chord diagramA minorAm  E13-/G#  A chord diagramC/GC/G  A chord diagramD/F#D/F#  F7M  A chord diagramG/BG/B  A chord diagramA minorAm  A chord diagramG/BG/B )

   A chord diagramA minorAm       E13-/G#
E|-------5--7-------7-----------------------|
B|------------5---5---5---------------------|
G|-----5--------5-------5-------------------|
D|---7------6-------------6-----------------|
A|-0----------------------------------------|
E|------------------------------------------|

   A chord diagramC/GC/G           A chord diagramD/F#D/F#
E|-------8--------------2-------------------|
B|-----5---5----------3---3-----------------|
G|---5-------5------2-------2---------------|
D|-5-----------5--4-----------4-------------|
A|------------------------------------------|
E|------------------------------------------|

   F7M                        A chord diagramG/BG/B  A chord diagramA minorAm   A chord diagramG/BG/B
E|-------0-------------0--------------------|
B|-----1---1---------1---1-----0---1--1--3--|
G|---2-------2-----2-------2---0---2--2--0--|
D|-3-------------3-----------3-0---2--2--0--|
A|-----------------------------2---0--0--2--|
E|------------------------------------------|

Terceira Parte:

A chord diagramAm7Am7  D4     A chord diagramD MajorD                A chord diagramAm7Am7   A chord diagramE minorEm  A chord diagramD MajorD  A chord diagramC majorC  A chord diagramD MajorD
            Oh, it makes me wonder
A chord diagramAm7Am7  D4     A chord diagramD MajorD
Oh,           it makes me wonder

( A chord diagramAm7Am7  A chord diagramE minorEm  A chord diagramD MajorD  A chord diagramC majorC  A chord diagramD MajorD )

Quarta Parte:

(Violão)

   A chord diagramC majorC         A chord diagramG/BG/B      A chord diagramA minorAm
E|------------------------------------------|
B|---------1-------3--0h1---------1---------|
G|-------0-------0--------2-----2-----------|
D|-----2-------0--------------2-------------|
A|-0-3-------2--------0-----0---------------|
E|------------------------------------------|

   A chord diagramC majorC                  F7M  A chord diagramA minorAm
E|--------------------0----0----------------|
B|-----------1--------1----1----------------|
G|---------0-------0--2----2----------------|
D|-------2-------0----2----2----------------|
A|-0-2-3-------2-----------0----------------|
E|--------------------1---------------------|

   A chord diagramC majorC           A chord diagramG/BG/B      A chord diagramA minorAm
E|------------------------------------------|
B|-----------1-------3--0h1---------1-------|
G|---------0-------0--------2-----2---------|
D|-------2-------0--------------2-----------|
A|-0-2-3-------2--------0-----0-------------|
E|------------------------------------------|

   A chord diagramC majorC                  F7M  A chord diagramA minorAm
E|--------------------0----0----------------|
B|-----------1--------1----1----------------|
G|---------0-------0--2----2----------------|
D|-------2-------0----2----2----------------|
A|-0-2-3-------2-----------0----------------|
E|--------------------1---------------------|

   A chord diagramC majorC           A chord diagramG/BG/B
E|------------------------------------------|
B|-----------1-------0----------------------|
G|---------0-------0------------------------|
D|-------2-------0--------------------------|
A|-0-2-3-------2----------------------------|
E|------------------------------------------|

(Guitarra 1)

   A chord diagramC majorC       A chord diagramG/BG/B       A chord diagramA minorAm
E|------------------------------------------|
B|-------1-------3-0h1---------1------------|
G|-----0-------0-------2-----2--------------|
D|---2-------0-------------2----------------|
A|-3-------2-------------0-------0-2--------|
E|------------------------------------------|

   A chord diagramC majorC       A chord diagramG/BG/B   F7M  A chord diagramA minorAm
E|--------------------0---------------------|
B|-------1-------1----1---------------------|
G|-----0-------0-2----2---------------------|
D|---2-------0---2----2---------------------|
A|-3-------2----------0----------0-2--------|
E|---------------1--------------------------|

   A chord diagramC majorC       A chord diagramG/BG/B       A chord diagramA minorAm
E|------------------------------------------|
B|-------1-------3-0h1---------1------------|
G|-----0-------0-------2-----2--------------|
D|---2-------0-------------2----------------|
A|-3-------2-------------0-------0-2--------|
E|------------------------------------------|

   A chord diagramC majorC       A chord diagramG/BG/B   F7M  A chord diagramA minorAm
E|--------------------0---------------------|
B|-------1-------1----1---------------------|
G|-----0-------0-2----2---------------------|
D|---2-------0---2----2---------------------|
A|-3-------2----------0----------0-2--------|
E|---------------1--------------------------|

   A chord diagramC majorC       A chord diagramG/BG/B
E|------------------------------------------|
B|-------1-------0--------------------------|
G|-----0-------0----------------------------|
D|---2-------0------------------------------|
A|-3-------2--------------------------------|
E|------------------------------------------|

(Guitarra 2 - final)

   A chord diagramC majorC           A chord diagramG/BG/B
E|------------------------------------------|
B|-----------1-------0----------------------|
G|---------0-------0---2--------------------|
D|-------2-------0--------------------------|
A|-0-2-3-------2----------------------------|
E|------------------------------------------|

           A chord diagramC majorC         A chord diagramG/BG/B
There's a feeling I get
        A chord diagramA minorAm
When I look to the west
         A chord diagramC majorC         A chord diagramG/BG/B       F7M  A chord diagramA minorAm
And my spirit is crying for lea__ving

        A chord diagramC majorC              A chord diagramG/BG/B
In my thoughts I have seen
           A chord diagramA minorAm
Rings of smoke through the trees
         A chord diagramC majorC          A chord diagramG/BG/B            F7M  A chord diagramA minorAm  A chord diagramC majorC  A chord diagramG/BG/B
And the voices of those who stand loo__king

Terceira Parte:

A chord diagramAm7Am7  D4   A chord diagramD MajorD                  A chord diagramAm7Am7   A chord diagramE minorEm  A chord diagramD MajorD  A chord diagramC majorC  A chord diagramD MajorD
            Oh, it makes me wonder
A chord diagramAm7Am7  D4   A chord diagramD MajorD
Oh,           it makes me wonder

( A chord diagramAm7Am7  A chord diagramE minorEm  A chord diagramD MajorD  A chord diagramC majorC  A chord diagramD MajorD )

Quarta Parte - variação na letra:

           A chord diagramC majorC             A chord diagramG/BG/B
And it's whispered that soon
      A chord diagramA minorAm
If we all call the tune
          A chord diagramC majorC          A chord diagramG/BG/B        F7M  A chord diagramA minorAm
Then the piper will lead us to rea__son

       A chord diagramC majorC            A chord diagramG/BG/B
And a new day will dawn
      A chord diagramA minorAm
For those who stand long
         A chord diagramC majorC           A chord diagramG/BG/B        F7M  A chord diagramA minorAm  A chord diagramC majorC  A chord diagramG/BG/B
And the forests will echo with laughter

Terceira Parte: A chord diagramAm7Am7  D4  A chord diagramD MajorD  A chord diagramAm7Am7  A chord diagramE minorEm  A chord diagramD MajorD  A chord diagramC majorC  A chord diagramD MajorD
                 A chord diagramAm7Am7  D4  A chord diagramD MajorD  A chord diagramAm7Am7  A chord diagramE minorEm  A chord diagramD MajorD  A chord diagramC majorC  A chord diagramD MajorD

(Entrada da Bateria)

Quarta Parte - variação na letra:

A chord diagramC majorC               A chord diagramG/BG/B            A chord diagramA minorAm
  If there's a bustle in your hedgerow

Don't be alarmed now
A chord diagramC majorC                A chord diagramG/BG/B                F7M  A chord diagramA minorAm
  It's just a spring clean for the may queen

A chord diagramC majorC                 A chord diagramG/BG/B              A chord diagramA minorAm
  Yes there are two paths you can go by

But in the long run
A chord diagramC majorC                A chord diagramG/BG/B                F7M        A chord diagramA minorAm
  There's still time to change the road you're on

( A chord diagramC majorC  A chord diagramG/BG/B )

Terceira Parte:

A chord diagramAm7Am7  D4     A chord diagramD MajorD                  A chord diagramAm7Am7   A chord diagramE minorEm  A chord diagramD MajorD  A chord diagramC majorC  A chord diagramD MajorD
              And it makes me wonder

( A chord diagramAm7Am7  D4  A chord diagramD MajorD  A chord diagramAm7Am7  A chord diagramE minorEm  A chord diagramD MajorD  A chord diagramC majorC  A chord diagramD MajorD )

Quarta Parte - variação na letra:

A chord diagramC majorC               A chord diagramG/BG/B            A chord diagramA minorAm
  Your head is humming and it won't go

In case you don't know
A chord diagramC majorC              A chord diagramG/BG/B            F7M  A chord diagramA minorAm
  The piper's calling you to join him

A chord diagramC majorC            A chord diagramG/BG/B              A chord diagramA minorAm
  Dear lady can you hear the wind blow

And did you know
A chord diagramC majorC                A chord diagramG/BG/B          F7M  A chord diagramA minorAm       A chord diagramC majorC  A chord diagramG/BG/B
  Your stairway lies on the whispering wind

Passagem Solo:

Violão: D5(9)  A chord diagramD MajorD  D4  D5(9)  A chord diagramD MajorD  D4  D5(9)  A chord diagramD MajorD  D4  A chord diagramD MajorD  A chord diagramC9C9
        D5(9)  A chord diagramD MajorD  D4  D5(9)  A chord diagramD MajorD  D4  D5(9)  A chord diagramD MajorD  D4  A chord diagramD MajorD
        A chord diagramC9C9  A chord diagramG/BG/B

(Guitarra 2)

E|-2----0--2--3----0--2--3----0--2--3--3--2-|
B|-3----3--3--3----3--3--2----3--3--3--2--3-|
G|-2----2--2--2----2--2--3----2--2--2--2--2-|
D|-0----0--0--0----0--0--0----0--0--0--0--0-|
A|------------------------------------------|
E|------------------------------------------|

E|-0----2--2-0--------2--2-0----------------|
B|-3----3------3------3------3--------------|
G|-0--0----------0--0----------0------------|
D|-x--x----------x--x-----------------------|
A|-3--3----------3--3-----------------------|
E|------------------------------------------|

E|-0--2--3----0--2--3----0--2--3--3--2------|
B|-3--3--3----3--3--2----3--3--3--2--3------|
G|-2--2--2----2--2--3----2--2--2--2--2------|
D|-0--0--0----0--0--0----0--0--0--0--0------|
A|------------------------------------------|
E|------------------------------------------|

E|-0----2--2-2-0-----------2--2-2-0---------|
B|-3----3--------3----3----3--------3-------|
G|-0--0------------0--0--0------------0-----|
D|-x--x---------------0--0------------------|
A|-3--3---------------2--2------------------|
E|------------------------------------------|

Solo: A chord diagramA minorAm  A chord diagramAm/GAm/G  F7M

Parte 1 de 11

E|--------5-------------------------------------------|
B|----------8p5---------------------------------------|
G|-7b9~---------7p5---7p5-----------------------------|
D|------------------7-----7p5-------------------------|
A|----------------------------8~----------------------|
E|----------------------------------------------------|

Parte 2  de 11

E|------8--8--8b10--8--5---------8~--10p8-------------|
B|-8b10------------------10-/10~----------10p8---8h10~|
G|---------------------------------------------9------|
D|----------------------------------------------------|
A|----------------------------------------------------|
E|----------------------------------------------------|

Parte 3 de 11

E|-----5----------------------------------------------|
B|-------8p5------------------------------------------|
G|-7b9-------7p5---7p5-----------5---5--5~--0---------|
D|---------------7-----7p5---5-7---7------------------|
A|-------------------------7--------------------------|
E|----------------------------------------------------|

Parte 4 de 11

E|-5--------------------------------------------------|
B|---8-5----------------------------------------------|
G|-------7p5---7p5------------------------------------|
D|-----------7-----7-5-7p5-3--------------------------|
A|----------------------------------------------------|
E|----------------------------------------------------|

Parte 5 de 11

E|----------------------------------------------------|
B|-------6---------------------------13--15b17-b17r15-|
G|-----5---7p5---5-------12----12h14------------------|
D|-/7----------7---7/14-----14------------------------|
A|----------------------------------------------------|
E|----------------------------------------------------|

E|-------------15b17~-b17r15-12-----------------------|
B|-13-15-13---------------------15b17-15-13----13-----|
G|----------14------------------------------14--------|
D|----------------------------------------------------|
A|----------------------------------------------------|
E|----------------------------------------------------|

Parte 6 de 11

E|----------------------------------------------------|
B|-15b17r15p13----13-15b17r15p13----13-15b17r15p13----|
G|-------------14----------------14----------------14-|
D|----------------------------------------------------|
A|----------------------------------------------------|
E|----------------------------------------------------|

E|----------------------------------------------------|
B|-13-15b17r15p13----13-15b17r15p13----13-15b17r15p13-|
G|----------------14----------------14----------------|
D|----------------------------------------------------|
A|----------------------------------------------------|
E|----------------------------------------------------|

E|----------------------------------------------------|
B|----13-15b17r15p13----13-15b17r15p13----13----------|
G|-14----------------14----------------14-------------|
D|----------------------------------------------------|
A|----------------------------------------------------|
E|----------------------------------------------------|

E|-------------------------------------15b17~~--------|
B|-15b17r15p13----13-15b17r15p13----13----------------|
G|-------------14----------------14-------------------|
D|----------------------------------------------------|
A|----------------------------------------------------|
E|----------------------------------------------------|

Parte 7 de 11

E|-----15----------------------------------15---------|
B|-/17----17-15-13----13-15p13----13-15b17------------|
G|-----------------14----------14---------------------|
D|----------------------------------------------------|
A|----------------------------------------------------|
E|----------------------------------------------------|

E|----------------------------------------------------|
B|-b17r15p13------------------------------------------|
G|-----------14~--------------------------------------|
D|----------------------------------------------------|
A|----------------------------------------------------|
E|----------------------------------------------------|

Parte 8 de 11

E|-----15--17--15~------------------------------------|
B|-/17-------------17\15p13----15p13----13-15b17~-----|
G|--------------------------14-------14---------------|
D|----------------------------------------------------|
A|----------------------------------------------------|
E|----------------------------------------------------|

Parte 9 de 11

E|----------------------------------------------------|
B|-11b13---11b13-10------10---------------------------|
G|-------------------12-----12b14~--------------------|
D|----------------------------------------------------|
A|----------------------------------------------------|
E|----------------------------------------------------|

Parte 10 de 11

E|----------------------------------------------------|
B|----------------------------------------------------|
G|-10b14--10-9p7\5h7p5-7h9p7p5------------------------|
D|-----------------------------7~---------------------|
A|----------------------------------------------------|
E|----------------------------------------------------|

Parte 11 de 11

E|----20p17----20p17----20p17----20p17----20p17-------|
B|-17-------17-------17-------17-------17-------17----|
G|----------------------------------------------------|
D|----------------------------------------------------|
A|----------------------------------------------------|
E|----------------------------------------------------|

E|-20b22~---------------------------------------------|
B|----------------------------------------------------|
G|----------------------------------------------------|
D|----------------------------------------------------|
A|----------------------------------------------------|
E|----------------------------------------------------|

(Guitarra 3 - com slide)

E|-8\7--8\5~~-----------------------------------------|
B|----------------------------------------------------|
G|----------------------------------------------------|
D|----------------------------------------------------|
A|----------------------------------------------------|
E|----------------------------------------------------|

Quinta Parte:

(Guitarra 2)

   A chord diagramA5A5   A chord diagramG5G5   A chord diagramF5F5                A chord diagramG5G5
E|------------------------------------------|
B|------------------------------------------|
G|------------------------------------------| (3x)
D|-7-7--5-5--3---3---3---3---3-5------------|
A|-7-7--5-5--3---3---3---3---3-5------------|
E|-5-5--3-3--1-0-1-0-1-0-1-0-1-3------------|

A chord diagramA minorAm            A chord diagramG MajorG                A chord diagramFF   A chord diagramG MajorG
   And as we wind on down the road
A chord diagramA minorAm              A chord diagramG MajorG               A chord diagramFF   A chord diagramG MajorG
   Our shadows taller than our soul
A chord diagramA minorAm                A chord diagramG MajorG            A chord diagramFF  A chord diagramG MajorG
   There walks a lady we all know

(Guitarra 2)

   A chord diagramA5A5   A chord diagramG5G5   A chord diagramF5F5                  A chord diagramA5A5
E|------------------------------------------|
B|------------------------------------------|
G|------------------------------------------|
D|-7-7--5-5--3------------------------------|
A|-7-7--5-5--3-------3--5/7--5-3------------|
E|-5-5--3-3--1--3/5--------------5----------|

   A chord diagramA5A5 A chord diagramG5G5   A chord diagramF5F5
E|------------------------------------------|
B|------------------------------------------|
G|------------------------------------------| (3x)
D|-7--5-5--3--------------------------------|
A|-7--5-5--3-------3--5/7--5-3--------------|
E|-5--3-3--1--3/5--------------5------------|

A chord diagramA minorAm                   A chord diagramG MajorG                   A chord diagramFF  A chord diagramG MajorG
   Who shines white light and wants to show
A chord diagramA minorAm            A chord diagramG MajorG                   A chord diagramFF   A chord diagramG MajorG
   How everything still turns to gold
A chord diagramA minorAm             A chord diagramG MajorG           A chord diagramFF   A chord diagramG MajorG
   And if you listen very hard
A chord diagramA minorAm                A chord diagramG MajorG              A chord diagramFF   A chord diagramG MajorG
   The tune will come to you at last

A chord diagramA minorAm              A chord diagramG MajorG           A chord diagramFF            A chord diagramG MajorG
   When all are one and one is all, yeah
A chord diagramA minorAm          A chord diagramG MajorG               A chord diagramFF
   To be a rock and not to roll

( A chord diagramA minorAm  A chord diagramG MajorG  A chord diagramFF ) (4x)

E|----------------------------------------------------|
B|--------------8h10~---------------------------------|
G|------5--7/9----------------------------------------|
D|-5/7------------------------------------------------|
A|----------------------------------------------------|
E|----------------------------------------------------|

E|----------------------------------------------------|
B|-3----5------8------10-----13-----------------------|
G|-5b7--7b9~---10b12--12b14--15b17~-------------------|
D|----------------------------------------------------|
A|----------------------------------------------------|
E|----------------------------------------------------|

E|----------------------------------------------------|
B|-12-----13----13------------------------------------|
G|-14b16--15b17-15b17~--------------------------------|
D|----------------------------------------------------|
A|----------------------------------------------------|
E|----------------------------------------------------|

E|----------------------------------------------------|
B|-12-----13----13------------------------------------|
G|-14b16--15b17-15b17~--------------------------------|
D|----------------------------------------------------|
A|----------------------------------------------------|
E|----------------------------------------------------|

E|----------------------------------------------------|
B|-12-----13------------------------------------------|
G|-14b16--15b17~--------------------------------------|
D|----------------------------------------------------|
A|----------------------------------------------------|
E|----------------------------------------------------|

E|----------------------------------------------------|
B|-15-----13-----12-----15-----13---------------------|
G|-17b19--15b17--14b16--17b19--15b17~-----------------|
D|----------------------------------------------------|
A|----------------------------------------------------|
E|----------------------------------------------------|

Other versions of Stairway To Heaven

Stairway to heavenChords
Stairway to heaven (Ver. 2)Chords
Stairway to heaven (Ver. 3)Chords
Stairway to heaven (Ver. 4)Chords
Stairway to heaven acousticChords
Stairway to heavenTabs
Stairway to heaven (Ver. 2)Tabs
Stairway to heaven (Ver. 3)Tabs
Stairway to heaven - introChords
Stairway to heaven easyTabs

Almost there ...

Sign in to get your own page with links to favourite songs and more. You are just one click away...

Login with Facebook Login with Google