Log in

One click and you are in

Login with Facebook Login with Google

Why sign up and log in

Guitar Tabs Explorer
Led Zeppelin guitar tabs for Stairway to heaven (Ver. 3)

Guitar tabs

Key: A chord diagramA majorA

E|-5-----5-7-----7-|-8-----8\-2-----2-|-0-----------/5-3-1h3p1-|
B|---5-------5-----|---5--------3-----|---1---1-(1)------------|
G|-----5-------5---|-----5--------2---|-----2-------/5-3-2-----|
D|-7-------6-------|-5--------4-------|-3----------------------|
A|-----------------|------------------|------------------------|
E|-----------------|------------------|------------------------|

E|--------------------|---------7-----7-|-8-----8\-2-----2-|
B|-0-1-1--(1)---------|-------5---5-----|---5--------3-----|
G|-0-2-2--(2)---------|-----5-------5---|-----5--------2---|
D|-----2--(2)---------|---7-----6-------|-5--------4-------|
A|-2-0-0--(0)-0-/8-7--|-0---------------|------------------|
E|--------------------|-----------------|------------------|

E|-0-----------/5-3-1h3p1p0-|---------------| repetir 2 x e mais as
B|---1---1-(1)--------------|-0-1-1---------| 3 primeiras tabs
G|-----2-------/5-3-2-------|-----2---------|
D|-3------------------------|-----2---------| depois cai no mini solo
A|--------------------------|-2-0-0----0-2--|
E|--------------------------|---------------|

E|-------0-2-----2-|-0---(0)-0-----------|
B|-1---1-----3-----|---1-------0h1-------|
G|---0---------2---|------2--------2-----|
D|---------0-------|-3-------------------|
A|-3---------------|-----------0-----0-2-|
E|-----------------|---------------------|

E|-------0-3-----3-|-3p2------------------|
B|-1---1-----0-----|----------------------|
G|---0---------0---|-----0-2-0h2p0--------|
D|-----------------|---------------4------|
A|-3---------------|-0----------------0-2-|
E|---------3-------|----------------------|

E|-------0-2-----2-|-0-----0-----------|
B|-1---1-----3-----|---1-----0h1-------|
G|---0---------2---|-----2-------2-----|
D|---------0-------|-3-----------------|
A|-3---------------|---------0-----0-2-|
E|-----------------|-------------------|

E|-------0-2-----2-|-------------------------||
B|-1---1-----3-----|-1-0-1-3p1p0-3p1p0-1-----||
G|---0---------2---|-------------------------||
D|---------0-------|-3-----------------------||
A|-3---------------|-------------------------||
E|-----------------|-------------------------||

E|---------------7-------(7)-|-------8-------x-------0---------|
B|-------5-----5---5---------|-----5---5-----------3---3-----x-|
G|-----5-----5-------5-------|---5-------5-------2-------2-----|
D|---7-----6-----------6-----|-5-----------5---4-----------4---|
A|-0-------------------------|---------------------------------|

E|-------0-(0)-----------0-------|----------^3---||
B|-----1-------1-------1---1-----|-0-1-1----^3---||
G|---2-----------2---2-------2---|-0-2-2----^0---||
D|-3---------------3-----------3-|----------^0---||
A|-------------------------------|-2-0-0----^2---||

Other versions of Stairway To Heaven

Stairway to heavenChords
Stairway to heaven (Ver. 2)Chords
Stairway to heaven (Ver. 3)Chords
Stairway to heaven (Ver. 4)Chords
Stairway to heaven (Ver. 5)Chords
Stairway to heaven acousticChords
Stairway to heavenTabs
Stairway to heaven (Ver. 2)Tabs
Stairway to heaven - introTabs
Stairway to heaven easyTabs

Almost there ...

Sign in to get your own page with links to favourite songs and more. You are just one click away...

Login with Facebook Login with Google