Log in

One click and you are in

Login with Facebook Login with Google

Why sign up and log in

Guitar Tabs Explorer
Led Zeppelin bass tabs for Killing floor

Bass tabs

Key: F

G|----------------------------|----------|-------|----------------------------|
D|----------------------------|----------|-------|----------------------------|
A|-----------1L----------1L---|--1--0L---|--0L---|--0L----------0-------------|
E|----------------------------|----------|-------|-----------------0L---------|

G|--------2-----7--4--2--0-----0--2--0----------------|
D|--------------------------2-----------2--------0----|
A|----------------------------------------------------|
E|--0-------------------------------------------------|


G|-----------0--2--0-----------------------0-----0----|
D|--2-----------------2-----2-----0--2----------------|
A|-----------------------------2----------------------|
E|----------------------------------------------------|


G|----------------------------------------------------|
D|--2--------0--2--------0--2-------------------------|
A|----------------------------------------------------|
E|--------------------------------0L------------------|


G|-----2-----------------0-----0--2--0----------------|
D|--------------------------2-----------2--------0----|
A|----------------------------------------------------|
E|--0-----------0-------------------------------------|


G|-----------0--2--0-----------------------0--2--0----|
D|--2-----------------2-----------0--2----------------|
A|-----------------------------2----------------------|
E|----------------------------------------------------|

G|----------------------------------------------------|
D|--2--------0--2--------0--2-------------------------|
A|----------------------------------------------------|
E|--------------------------------0-----0L------------|


G|--------2--4--7--4--2--0-----0--2--0----------------|
D|-----0--------------------2-----------2--------0----|
A|----------------------------------------------------|
E|--0-------------------------------------------------|


G|-----------0--2--0-----------------------0--2--0----|
D|--2-----------------2-----------0--2----------------|
A|-----------------------------2----------------------|
E|----------------------------------------------------|


G|----------------------------------------------------|
D|--2-----------0--2-----0--2L------------------------|
A|----------------------------------------------------|
E|----------------------------------------------------|


G|--------2-----8--4--2--0--9--0--2--0--9-------------|
D|--2--0-----------------------------------------0----|
A|----------------------------------------------------|
E|----------------------------------------------------|


G|-----------0--2--0--------------------------2--0----|
D|--2-----------------2-----------0--2-----5----------|
A|-----------------------------2----------------------|
E|----------------------------------------------------|


G|--9-----------7--9-----7--9-------------------------|
D|--------------0-----2--0--------2L------------------|
A|----------------------------------------------------|
E|--------------------------------0L------------------|


G|--------2-----7--------0-----0--2--0----------------|
D|--2-----------------------2-----------2--------0----|
A|----------------------------------------------------|
E|--0-------------------------------------------------|


G|-----9-----0--2--0-----------------------0--2--0----|
D|--2-----------------2-----------0--2----------------|
A|-----------------------------2----------------------|
E|----------------------------------------------------|


G|--9-------------------------------------------------|-------|
D|--2-----------0--2-----0--2-------------------------|-------|
A|----------------------------------------------------|-------|
E|--------------------------------0-----0-----0L------|--0L---|


G|----------------------------------------------------|-------|
D|-----------------------------------2L----------2L---|--2L---|
A|----------------------------------------------------|-------|
E|--0L----------------------0-------------------------|-------|


G|--------------7--9L----------------------9----------|
D|--2-----------0-------------------------------------|
A|----------------------------------------------------|
E|----------------------------------------------------|


G|----------------------------------------------------|
D|--2-------------------------------------------------|
A|-----------------------------0--0--0--0--1-----2----|
E|--0-----------4-----------4-------------------------|


G|----------------------------|
D|--0L----------------0--2----|
A|----------------------------|
E|----------------------------|


G|-----------------------8----------------------------|
D|--------------------------------------9-----0--1----|
A|--------------------------------1-------------------|
E|--0--0--------4--------4----------------------------|


G|----------------------------|
D|--2--------2L----------2----|
A|----------------------------|
E|----------------------------|


G|-----------------------9L----------------9----------|
D|--------------------------------------------0--1L---|
A|----------------------------------------------------|
E|--0L----------------0-------------------------------|


G|-----------------9L---------|
D|--1L----------1-------------|
A|----------------------------|
E|----------------------------|


G|--9L----------------------9-----10----4--------8L---|
D|--------------------------------------------0-------|
A|----------------------------------------------------|
E|----------------------------------------------------|


G|--8-----------9-------------------------------------|
D|--------------------2-------------------------------|
A|--------------------------------1--2--------2L------|
E|----------------------------------------------------|


G|-----------------7-----9L---|
D|-----------------0----------|
A|--2L----------2-------------|
E|----------------------------|


G|--9L----------------------------------9-------------|
D|-----------------------------------------0----------|
A|----------------------------------------------------|
E|----------------------------------------------------|


G|--9L----------------------------------9--16---------|
D|----------------------------------------------------|
A|----------------------------------------------------|
E|----------------------------------------------------|


G|--9L----------9--1L---------|--1-------------------------|
D|----------------------------|--------------1--3L---------|
A|----------------------------|--------2-------------------|
E|----------------------------|----------------------------|


G|--------------1--------------2--9-----0-------------|
D|--3-----------0--------1----------------------------|
A|----------------------------------------------------|
E|----------------------------------------------------|


G|--9L----------9--9--------9--7-----------4-----1L---|
D|----------------------------------------------------|
A|----------------------------------------------------|
E|----------------------------------------------------|


G|--1L----------1--0L----------0----------------------|
D|-----------------------------------------0----------|
A|--------------------------------0--1--------0-------|
E|----------------------------------------------------|


G|----------------------------------------------------|
D|-----------------------------------------------1----|
A|--------------------------0-----1--2--2-------------|
E|--0-----------4-------------------------------------|


G|-----------------------------------------8-----9----|
D|--2-----------------2L----------------2-------------|
A|----------------------------------------------------|
E|----------------------------------------------------|


G|----------------------------------------------------|
D|--2-----------------------------------------0--1----|
A|-----------------------0-----0--1--1--2-------------|
E|--------------4--4----------------------------------|


G|--------------9--9-----9----------------------------|
D|--2-----------------2-----2-----0--1----------------|
A|-----------------------------------------0----------|
E|--------------------------------------------3--4L---|


G|-----------------------------------------------9----|
D|-----------------------------------0----------------|
A|----------------------------------------------------|
E|--4L----------------------4-------------------------|


G|--2L----------------2--1-----0L----------0----------|
D|--------------------------------------------2-------|
A|-----------------------------------------------0----|
E|----------------------------------------------------|


G|----------------------------------------------------|
D|----------------------------------------------------|
A|-----------------------0--0-----0-----1-----2--2----|
E|--0-----------4--------4----------------------------|


G|--------------------------------1-----9-------------|
D|--2-----------------2--------0----------------------|
A|----------------------------------------------------|
E|----------------------------------------------------|


G|--4-----4-----8--9--10-11----------0-----4----------|
D|----------------------------------------------------|
A|----------------------------------------------------|
E|----------------------------------------------------|


G|--2-----2-----------------------0--1L----------1L---|
D|-----------------0--1--2--2--0----------------------|
A|----------------------------------------------------|
E|----------------------------------------------------|


G|--1-----9-----9-----9-----9-----7--4-----2L---------|
D|----------------------------------------------------|
A|----------------------------------------------------|
E|----------------------------------------------------|


G|--2L----------2-----21-------------------19---------|
D|-----------------1--------------0-----------0-------|
A|----------------------------------------------------|
E|----------------------------------------------------|


G|--------------1-----------------9-------------------|
D|--2--------------------------------2L----------2L---|
A|----------------------------------------------------|
E|----------------------------------------------------|


G|----------------------------------------------------|
D|--2L----------------------2--0L----------------0L---|
A|----------------------------------------------------|
E|----------------------------------------------------|


G|----------------------------------------------------|-------|
D|--0-----------------0L----------------0--0----------|--2L---|
A|----------------------------------------------------|-------|
E|----------------------------------------------------|-------|


G|----------------------------------------------------|
D|--2-----------------------------------------0--0----|
A|--------------------------------------4-------------|
E|----------------------------------------------------|


G|-----------------------14---|--8--9-----22L---------22L--|
D|--0L----------------0-------|----------------------------|
A|----------------------------|----------------------------|
E|----------------------------|----------------------------|


G|--22----------------------16L-----------------------|--16------|
D|-----2L----------------2----------------------------|-----2L---|
A|----------------------------------------------------|----------|
E|----------------------------------------------------|----------|


G|-----------------9L---------|--9-------|
D|--2L----------2-------------|-----0L---|
A|----------------------------|----------|
E|----------------------------|----------|


G|--------------22L---------------------22-19----8L---|
D|--0-------------------------------------------------|
A|----------------------------------------------------|
E|----------------------------------------------------|


G|--8L----------------8--9L----------9----------------|
D|--------------------------------------2-------------|
A|----------------------------------------------------|
E|----------------------------------------------------|


G|----------------------------|-----------------2L---------|
D|----------------------------|----------------------------|
A|----------------------------|----------------------------|
E|--3--0--4L------------------|--4L----------4-------------|


G|--2-------------------------------------------------|
D|-----0--2L----------------------------------2L------|
A|----------------------------------------------------|
E|----------------------------------------------------|


G|----------------------------------------------------|
D|--2L----------------------2-----------------2L------|
A|-----------------------------------4----------------|
E|----------------------------------------------------|


G|----------------------------------------------------|
D|--2-----------0L----------------------0-------------|
A|----------------------------------------------------|
E|--------------------------------------------3--3L---|


G|----------------------------------------------------|
D|--------------------------2--2-----2----------------|
A|--------------------------------------4--2-----0----|
E|--3--------0L----------0----------------------------|


G|----------------------------------------------------|
D|-----------2--2--0-----------------2--2--0----------|
A|--------------------------------------------2-------|
E|--3--0-----------------------3--0--------------4----|


G|-----------2--2--0-----------2--0--------------8----|
D|--------------------------------------2--1--2-------|
A|-----0--0-----------5--3--0-------------------------|
E|--3-------------------------------------------------|


G|--9--9--7--4--------9--9--9--3--1--4--4--2----------|
D|--------------2--------------------------------4----|
A|----------------------------------------------------|
E|----------------------------------------------------|


G|-----------------------------------1--2--2--3-------|
D|--2--1-----------0-----1--1--2--2-------------------|
A|--------2--0--4-------------------------------------|
E|----------------------------------------------------|


G|--4-----6-----7--8--9--9--7-----2-------------------|
D|--------------------------------------2--2--0-------|
A|----------------------------------------------------|
E|-----------------------------------------------0----|


G|----------------------------------------------------|
D|-----------------------------0-----2--2--2--2--0----|
A|--2-----------------0--1----------------------------|
E|-----4--3--0--0--4----------------------------------|


G|--------------------2-----2-----------------0-------|
D|-----------0--1--2-----------------0--1--2-----2----|
A|--0-----4--------------------4----------------------|
E|----------------------------------------------------|


G|-----1-----2--3--4--6-----1--2-----3--4--7----------|
D|--2-------------------------------------------------|
A|--------------------------------------------0-------|
E|----------------------------------------------------|


G|--4--2----------------------------------------------|
D|-----------4--2--1-----------0--1--2--4-------------|
A|--------------------2--0--4-------------------------|
E|----------------------------------------------------|


G|----------------------------------------------------|
D|--2-----0-------------------------------------------|
A|--------------4-----3--2--2--0----------------------|
E|-----------------------------------3--3-----1--1----|


G|----------------------------------------------------|
D|--------------------------------------------0--1----|
A|--------------------------0-----------2-------------|
E|--0-----------4-------------------------------------|


G|-----------------------------0--9--2--4--7----------|
D|--2-----------2L----------2-------------------------|
A|----------------------------------------------------|
E|----------------------------------------------------|


G|----------------------------------------------------|
D|--2-------------------------------------------------|
A|--------------------------0-----0-----1-----2-------|
E|--0-----0--0--4-----4--4----------------------------|


G|--------------9--------------2-----------0----------|
D|--2-----------------2-----------0--1--2-------------|
A|----------------------------------------------------|
E|----------------------------------------------------|


G|--2--------------------------------------------0----|
D|--------------------------0-----0-----1--2----------|
A|--0--0-----0--4-----4-------------------------------|
E|----------------------------------------------------|


G|--2-----------------------0--1-----2----------------|
D|-----0-----0--1--1-----0-----------------------0----|
A|--------4--------------------------------0--4-------|
E|----------------------------------------------------|


G|----------------------------|
D|--2-------------------------|
A|--------------0-----1--2----|
E|--------4-------------------|


G|----------------------------------------------------|
D|--2--------2--2-----2L----------------------2--0----|
A|----------------------------------------------------|
E|----------------------------------------------------|


G|--4-----4-----------4-----------------------0-------|
D|--------------4--------4-----------0--4-------------|
A|--------------------------------4-------------------|
E|----------------------------------------------------|


G|--------------------------------0-----2--0----------|
D|-----------------0--1--2-----------2----------------|
A|--0-----------4-------------------------------------|
E|----------------------------------------------------|


G|--------------9--9-----9-----7--4-----2-----0--1----|
D|--2-------------------------------------------------|
A|----------------------------------------------------|
E|----------------------------------------------------|


G|-----------------0----------------------------------|
D|--2-----0-----2-----2-----0-------------------------|
A|--------------------------------2-----0-------------|
E|-----------------------------------------4--3-------|


G|----------------------------------------------------|
D|-----------------------------------------------0----|
A|-----------------------------0-----1--2-----0-------|
E|--0L----------0--4--------0-------------------------|


G|----------------------------------------------------|
D|--1--2L----------2--2L----------------------2-------|
A|----------------------------------------------------|
E|----------------------------------------------------|


G|--------1--1--2--2-----4----|--9L----------9-------------|
D|--2-------------------------|----------------------------|
A|----------------------------|-----------------1----------|
E|----------------------------|----------------------------|


G|--------------------------------------------0--1----|
D|--------------------------0-----1--2-----0----------|
A|--0-----------4--------4----------------------------|
E|----------------------------------------------------|


G|--2-------------------------------------------------|
D|-----2-----------------------------------0-----1----|
A|-----------0--------0L----------0--0--4-------------|
E|----------------------------------------------------|


G|--------------1-----1--2--2-----2-----3--2-----4L---|
D|--2-------------------------------------------------|
A|----------------------------------------------------|
E|----------------------------------------------------|


G|--4--6--7--8--9-----1--2-----4----------------------|
D|--------------------0-----------------2--3----------|
A|-----------------------------------0--------2L------|
E|----------------------------------------------------|


G|--------------------------------4-----2-------------|
D|-----------------------------------3-----2----------|
A|--2-----------------2-----------------------0--0----|
E|----------------------------------------------------|


G|--------------------0-----0-------------------------|
D|-----------------0-----0-----0--------2-------------|
A|--0-----0-------------------------------------------|
E|-----------3----------------------------------------|


G|----------------------------------------------------|
D|--0--------0----------------------------------------|
A|--------------4--4-----4--3-----3--2-----2--2--2----|
E|----------------------------------------------------|


G|----------------------------------------------------|
D|----------------------------------------------------|
A|--0-----0--0----------------------------------------|
E|--------------4--4-----4--2--2-----1--0-------------|


G|----------------------------------------------------|--1-------------|
D|--------------------------------0--1--2-------------|-----------2----|
A|--------------0-----1-----2-------------------------|----------------|
E|--4-------------------------------------------------|----------------|


G|--1--------1-----2-----2--3L----------3-------------|
D|--------------------------------------------2-------|
A|-----------------------------------------0----------|
E|----------------------------------------------------|


G|--------------4--9-----3--4-------------------------|
D|--2--------------------------0--2-------------------|
A|-----------------------------------1--0-------------|
E|----------------------------------------------------|


G|-----------------------------------------------0L---|
D|--------------------0-----1-----2L----------2-------|
A|--4--------4----------------------------------------|
E|----------------------------------------------------|


G|--0-------------------------------------------------|
D|-----0--2-----1--0--------------------2-------------|
A|-----------------------0--4--2--0-------------------|
E|----------------------------------------------------|


G|--------------------------------1--4----------------|
D|-----------------------0--1--2--------2-----2L------|
A|-----------0--------2-------------------------------|
E|--4-------------------------------------------------|


G|----------------------------------------------------|
D|--2-------------------------------------------------|
A|-----------------4-----3-----0--1--2L----------2----|
E|-----------4----------------------------------------|


G|--------------------4-----4--------2----------------|
D|-----------------4-----4-----------------4--2-------|
A|--2--------1--2--------------------------------4----|
E|----------------------------------------------------|


G|----------------------------------------------------|
D|--4--2--------------------------------2-------------|
A|--------4--0-----0--1-----0--2----------------------|
E|----------------------------------------------------|


G|----------------------------|
D|----------------------------|
A|--------0--0--1--------2----|
E|--4-------------------------|


G|----------------------------------------------------|
D|--------------------------0-----1-----2-----2L------|
A|--3--------4-----4--4-------------------------------|
E|----------------------------------------------------|


G|-----------------9--------7--9-----2--4-------------|
D|--2L----------2-----------------------------2-------|
A|----------------------------------------------------|
E|----------------------------------------------------|


G|--4L----------------4-------|
D|--2L----------------2--0----|
A|----------------------------|
E|----------------------------|


G|----------------------------------------------------|
D|-----2L----------------------------------2----------|
A|--0-------------------------------------------------|
E|----------------------------------------------------|


G|----------------------------------------------------|
D|----------------------------------------------------|
A|----------------------------------------------------|
E|--0-----0--1-----1--2-----2--3-----3--4--2--0-------|


G|--------------------------------------------0--1----|
D|-----------------------0--------1-----2-------------|
A|--0-----------4-------------------------------------|
E|----------------------------------------------------|


G|--2-----------------------------------3--5--9--11---|
D|----------------------------------------------------|
A|----------------------------------------------------|
E|----------------------------------------------------|


G|--9L----------9--6--------4--11-------4--6--4-------|
D|-----------------------------------------------6----|
A|----------------------------------------------------|
E|----------------------------------------------------|


G|----------------------------------------------------|
D|--4--2-----2--1-----1--0--0--0----------------------|
A|--------------------------------4-----4--3--0-------|
E|----------------------------------------------------|


G|----------------------------------------------------|
D|----------------------------------------------------|
A|--1--2--2--2--2--2-----------2-----2-----2----------|
E|--------------------------2-----2-----2-------------|


G|----------------------------------------------------|
D|--------------------------------------------0--2L---|
A|--1--0-----0-----0--------0-----1--0--2--2----------|
E|----------------------------------------------------|


G|-----------------------------2--16----3--14----16---|
D|--2--------2-----2-----6----------------------------|
A|----------------------------------------------------|
E|----------------------------------------------------|


G|--4--------4-----4-----9----|
D|----------------------------|
A|----------------------------|
E|----------------------------|


G|--9-----1--2-----4----------------------------------|
D|-----------------------2--0-------------------------|
A|--------------------------------2-------------------|
E|-----------------------------------------3--0-------|


G|--------------------------1--2-----3--4--9----------|
D|-----------------0-----2----------------------------|
A|-----0-----1--2-------------------------------------|
E|--4-------------------------------------------------|


G|-----------------0--------0-------------------------|
D|-----0-----1--2--------------2-----0--------2--2----|
A|--4-----------------------------------4--4----------|
E|----------------------------------------------------|


G|--1--------2--4-----9--9--7-----4L----------4--4L---|
D|----------------------------------------------------|
A|----------------------------------------------------|
E|----------------------------------------------------|


G|--4-------------------------------------------------|
D|-----4-----2--1-----------------1--1--2-----2--2----|
A|-----------------2--0--0--4-------------------------|
E|----------------------------------------------------|


G|--1-----2-----2--4-----4--6-----7--7--8--8--9--9----|
D|----------------------------------------------------|
A|----------------------------------------------------|
E|----------------------------------------------------|


G|--7--4--7--2----------------------------------------|
D|-----------------2-----2--0--2----------------------|
A|--------------------------------2--0----------------|
E|--------------------------------------3--0----------|


G|----------------------------------------------------|
D|-----------------1--2--2--0-------------------------|
A|--------1--2-----------------2--2-----------0--0----|
E|--4--4--------------------------------4--4----------|


G|-----------------0--2--2--0-------------------------|
D|-----0--1-----2--------------2-----1-----0--2--2----|
A|--4-----------------------------------4-------------|
E|----------------------------------------------------|


G|--1--2L----------2--9--9--7-----4-----1--------3----|
D|-----------------------------------------2----------|
A|--------------------------------------------2-------|
E|----------------------------------------------------|


G|--2--1----------------------------------------------||
D|--------4--2----------------------------------------||
A|-----------------2----------------------------------||
E|--------------------------4--0L----------------0----||


🏷Legend
L - tied note

Almost there ...

Sign in to get your own page with links to favourite songs and more. You are just one click away...

Login with Facebook Login with Google