Search tabs and chords

Search for song, artist or band

Log in

One click and you are in

Login with Facebook Login with Google

Why sign up and log in

Guitar Tabs Explorer
Led Zeppelin guitar tabs for Hot dog

Guitar tabs with lyrics

TAB and Chords for Led Zeppelin's Hot Dog (on In Through The Out Door, I
believe).  For the lyrics that I was unsure of I put underlines, and for
the tab I was unsure of, I left blank.  I also did not denote any hammer-ons/
pull-offs in the solo, and I am not sure whether or not they belong in the
beginning and at the end.

^ Hammer-On/Pull-Off
) Bend up
( Release Bend
-----------------------------------------------------
-----------------------------------------------------
-------4^2^0-------------0---------4^2^0-------------
-5^4^5-------0---------0-----5^4^5-------0-----0---0-
-----------------3^2^3-----------------------5-------
-----------------------------------------------------

-----------------------------------------------------
-----------------------------------------------------
-------4^2^0-------------0---------4^2^0-----0-------
-5^4^5-------0---------0-----5^4^5-------0-----------
-----------------3^2^3-------------------------0-2-4-
-----------------------------------------------------

GGCCGGDD
GGCCGDGG

GGCCGGDD
GGCCGDGG

A chord diagramG MajorG
Well I just got in ...
A chord diagramC majorC
To find my girl ...
A chord diagramG MajorG                                     A chord diagramD MajorD
She took the Greyhound ...

A chord diagramG MajorG
I searched myself, ...
A chord diagramC majorC
And when I ...
A chord diagramG MajorG                 A chord diagramD MajorD          A chord diagramG MajorG
I found myself no ...

She said we couldn't ...
And I'll never love old ...

A chord diagramD MajorD                        A chord diagramG MajorG
Now that my baby's gone, ....,
A chord diagramD MajorD                                         A chord diagramG MajorG
She took my love and ...
A chord diagramC majorC                             A chord diagramG MajorG
And if I ever find that girl, I ...
A chord diagramC majorC                                     A chord diagramD MajorD
I'm gonna give her something ....

-----------------------0---------------------3-2-3-5-3---3-
-----------------3-2-3---3---------3-5---5-3---------------
-------2-4---4-2-------------5-4-5-------------------------
-5-4-5-----------------------------------------------------
-----------------------------------------------------------
-----------------------------------------------------------

-3------------7------------7---5)--(5-3-5)-5-------------
-----8-7-8-10-----8-7-8-10-------------------------------
---------------------------------------------------------
---------------------------------------------------------
---------------------------------------------------------
---------------------------------------------------------

---------------------------------------------------------
---------------------------------------------------------
---------------------------------------------------------
---------------------------------------------------------
---------------------------------------------------------
---------------------------------------------------------

---------------------------------------------------------
---------------------------------------------------------
-------2-4-2---------------------------------------------
-5-4-5-------5-4-5---5)----------------------------------
---------------------------------------------------------
---------------------------------------------------------

---------------------------------------------------------
---------------------------------------------------------
---------------------------------------------------------
---------------------------------------------------------
---------------------------------------------------------
---------------------------------------------------------

-----------------------------------------------2-3-2-3-5-3-
---------------------------------------3-5-3-5-------------
-------2-4-2-----------2-4-2-----5-4-5---------------------
-5-4-5-------5-4-5-4-5-------5-4---------------------------
-----------------------------------------------------------
-----------------------------------------------------------

-----15-13---------------------------------
-13)-------13)(----------------------------
----------------12-15-12-------------------
-------------------------------------------
-------------------------------------------
-------------------------------------------


-----------------------------------------------------
-----------------------------------------------------
-------4^2^0-------------0---------4^2^0-------------
-5^4^5-------0---------0-----5^4^5-------0-----0---0-
-----------------3^2^3-----------------------5-------
-----------------------------------------------------

-----------------------------------------------2-3---
-----------------------------------------------3-0---
-------4^2^0-------------0---------4^2^0---0---2-0---
-5^4^5-------0---------0-----5^4^5-------0-----0-0---
-----------------3^2^3---------------------------2---
-------------------------------------------------3---

--

Other versions of Hot Dog

Hot dog (Ver. 2)Tabs

Almost there ...

Sign in to get your own page with links to favourite songs and more. You are just one click away...

Login with Facebook Login with Google