Search tabs and chords

Search for song, artist or band

Log in

One click and you are in

Login with Facebook Login with Google

Why sign up and log in

Guitar Tabs Explorer
Led Zeppelin guitar tabs for Hey hey what can i do

Guitar tabs with lyrics

This was originally from: pizza@athena.mit.edu
(Antonio T Pizzigati)

Here's how I play the main stuff:

^ = hammer or pull-off

Main Riff

E|-------------
B|-------------
G|----------0~-
D|------0^2^0~- strum A chord diagramG MajorG chord and repeat
A|--1^2--------
E|-------------

The verse is
A chord diagramG MajorG A chord diagramD MajorD A chord diagramFF A chord diagramC majorC

The chorus is
A chord diagramG MajorG A chord diagramFF A chord diagramC majorC

Of course, there's a little more too it than that
(maybe someone with the TAB could post)


From jdreeves@ffs.b15.ingr.com  Wed Feb 24 23:26:39 1993
	id AA12369; Wed, 24 Feb 93 23:26:39 GMT
	id AA02723; Wed, 24 Feb 1993 17:28:32 -0600
Reply-To: jdreeves@ffs.b15.ingr.com
Status: OR

Sorry about taking so long on this but the salt mines have been
a little TOO busy lately.  Hope ya'll enjoy it and let me know if ya'll
find any mistakes, typos, whatever...


********************************************************************************
* When I was a kid, I thought that    * Jay Reeves - jdreeves@ffs.b15.ingr.com *
* when I grow-up, I wanted to be a    * Intergraph Corp. - Huntsville, AL. USA *
* caver...now I know I can't do both. *       (205) 730-6721                   *
********************************************************************************

+++++++++++++++++++++++++++++++++++++++++++++++++++++++++++++++++++++++++++++++

			Hey Hey What Can I Do
			by Led Zeppelin
			from the Remasters
			tabbed by Jay Reeves

Tab notes:

Tune all strings 3/4 step down from
standard tuning to match recorded tuning
Tempo = 76
Time Signature = 4/4 & 3/4
--R-- rest
--2/4-- slide up
--3(3)-- first note stuck, second note sustained for that beat.
--3h4-- hammer on
--3b4-- bend
> accent
X mute string


+++++++++++++++++++++++++++++++++++++++++++++++++++++++++++++++++++++++++++++++

 Intro:				     >
 | 1 e & a 2 e & a 3 e & a 4 e & a | 1 e & a 2 e & a 3 e & a 4 e & a |
 =====================================================================
e|---------------------------------|---------------------------------|
B|---------------------------------|-2-------------------------------|
G|---------------------------------|-2-----------------------2---2-2-|
D|-------------------------2---2-4-|-2---2-2-2---2-2-2---2-2-2---2-4-|
A|-------------------------3h4-0---|-----0-0-0---0-0-0---0-0-3h4-0---|
E|---------------------------------|---------------------------------|

  >				    >
| 1 e & a 2 e & a 3 e & a 4 e & a | 1 e & a 2 e & a 3 e & a 4 e & a |

|---------------------------------|---------------------------------|
|-2---------------------------2-2-|-2---------------------------2-2-|
|-2-----------------------2---2-2-|-2-----------------------2---2-2-|
|-2---2-2-2---2-2-2---2-2-2---2-4-|-2---2-2-2---2-2-2---2-2-2---2-4-|
|-0---0-0-0---0-0-0---0-0-3h4-0---|-0---0-0-0---0-0-0---0-0-3h4-0---|
|---------------------------------|---------------------------------|

  >       >
| 1 e & a 2 e & a 3 e & a | 1 e & a 2 e & a 3 e & a 4 e & a |

|---------------3(3)3---0-|-2--(2)-(2)-(2)-(2)-(2)-(2)-(2)--|
|-2-------2-----3(3)3---0-|-3--(3)-(3)-(3)-(3)-(3)-(3)-(3)--|
|-2-------2-----4(4)4---0-|-2--(2)-(2)-(2)-(2)-(2)-(2)-(2)--|
|-2---2-2-2-2-2-5(5)5-----|-4--(4)-(4)-(4)-(4)-(4)-(4)-(4)--|
|-0---0-0-0-0-0-----------|---------------------------------|
|-------------------------|---------------------------------|

Verse:
 | 1 e & a 2 e & a 3 e & a 4 e & a | 1 e & a 2 e & a 3 e & a 4 e & a |
 =====================================================================
||-------------------------2---2-0-|-2---2-0-2-0-2---2-0-----------0-|
||-2--(2)--0--(0)--0--(0)--3---3-3-|-3---3-3-3-3-3---3-3-3-3-2-1-2-2-|
||.2--(2)--1--(1)--0--(0)--2---2-0-|-2---2-0-2-0-2---2-0-2-2-2-2-2-2-|
||.2--(2)--2--(2)--0--(0)--4-------|---------0---------------2-2-2-2-|
||-0--(0)--2--(2)--X-------0--(0)--|(0)------------------------------|
||---------0--(0)--3--(3)----------|---------------------------------|

| 1 e & a 2 e & a 3 e & a 4 e & a | 1 e & a 2 e & a 3 e & a 4 e & a |

|-5--(5)--4--(4)--3---3-3-2---2-0-|-2-0-2---2-----------------------|
|-5--(5)--5--(5)--3---3-3-3---3-3-|-3-3-3---3-------2---------------|
|-6--(6)--4--(4)--4--(4)--2---2-0-|-2-0-2---2-------2---------2-----|
|-7--(7)--6--(6)--5--(5)----------|-0---0---0---2---2-----2-4-2-----|
|---------------------------------|-------------------3-4-------3b4-|
|---------------------------------|---------------------------------|

| 1 e & a 2 e & a 3 e & a 4 e & a | 1 e & a 2 e & a 3 e & a 4 e & a |

|-----------------3---3-3-2---2-0-|-2-0-2-0-2---2-2-----------------|
|-2--(2)--0--(0)--3---3-3-3---3-3-|-3-3-3-3-3---3-3-3-3-3-3---------|
|-2--(2)--1--(1)--0--(0)--2---2-0-|-2-0-2-0-2---2-2-2-2-2-2-2---2-2-|
|-2--(2)--2--(2)--0--(0)--4-------|-----------------0-0-0-0-2---2-2-|
|-0--(0)--2--(2)------------------|---------------------------3-4---|
|---------------------------------|---------------------------------|

| 1 e & a 2 e & a 3 e & a | 1 e & a 2 e & a 3 e & a 4 e & a |

|-5---0---4---0---2---2-0-|-2--(2)-(2)-(2)-(2)-(2)-(2)-(2)--|
|-5---5---5---5---2---2-0-|-3--(3)-(3)-(3)-(3)-(3)-(3)-(3)--|
|-6---6---4---4---2---2---|-2--(2)-(2)-(2)-(2)-(2)-(2)-(2)--|
|-7---7---6-------4---4---|-0--(0)-(0)-(0)-(0)-(0)-(0)-(0)--|
|-------------------------|-0--(0)-(0)-(0)-(0)-(0)-(0)-(0)--|
|-------------------------|---------------------------------|

| 1 e & a 2 e & a 3 e & a 4 e & a | 1 e & a 2 e & a 3 e & a 4 e & a |

|---------0---R-3(3)2-2-0-2---2-0-|-2-0-2-0-2---2-0-2---2---------0-|
|-2--(2)--2---R-3(3)3-3-3-3---3-3-|-3-3-3-3-3---3-3-3---3---2-1-2-2-|
|-2--(2)--2---R-0(0)2-2-0-2---2-2-|-2-------2---2-0-2---2---2-2-2-2-|
|-2--(2)--2---R-0(0)4-4---4-------|-4-----------------------2-2-2---|
|-0--(0)--0---R-------------------|---------------------------------|
|---------------------------------|---------------------------------|

| 1 e & a 2 e & a 3 e & a 4 e & a | 1 e & a 2 e & a 3 e & a 4 e & a |

|---------0---R-3(3)2-2-0-2---2-0-|-2-0-2-0-2---2-0-2-0-2-0---------|
|-2--(2)--2---R-3(3)3-3-3-3---3-3-|-3-3-3-3-3---3-3-3-3-3-3-2-1-2-1-|
|-2--(2)--2---R-0(0)2-2-0-2---2-2-|-2-0-2-2-2---2-0-2-0-2-2-2-2-2-2-|
|-2--(2)--2---R-0(0)4-4---4-------|-------------------------2-2-2-2-|
|-0--(0)--0---R-------------------|---------------------------------|
|---------------------------------|---------------------------------|

| 1 e & a 2 e & a 3 e & a 4 e & a | 1 e & a 2 e & a 3 e & a 4 e & a |

|---------0---R-3(3)2-2-0-2---2-0-|-2-0-2-0-2---2-0-2---2---------0-|
|-2--(2)--2---R-3(3)3-3-3-3---3-3-|-3-3-3-3-3---3-3-3---3---2-1-2-2-|
|-2--(2)--2---R-0(0)2-2-0-2---2-2-|-2-------2---2-0-2---2---2-2-2-2-|
|-2--(2)--2---R-0(0)4-4---4-------|-4-----------------------2-2-2---|
|-0--(0)--0---R-------------------|---------------------------------|
|---------------------------------|---------------------------------|

| 1 e & a 2 e & a 3 e & a 4 e & a | 1 e & a 2 e & a 3 e & a 4 e & a |

|---------0---R-3(3)2-2-0-2---2-0-|-2-0-2-0-2---2-0-2---2---------0-||
|-2--(2)--2---R-3(3)3-3-3-3---3-3-|-3-3-3-3-3---3-3-3---3---2-1-2-2-||
|-2--(2)--2---R-0(0)2-2-0-2---2-2-|-2-------2---2-0-2---2---2-2-2-2.||
|-2--(2)--2---R-0(0)4-4---4-------|-4-----------------------2-2-2--.||
|-0--(0)--0---R-------------------|---------------------------------||
|---------------------------------|---------------------------------||
 						Repeat last 16 measures
						once, then procede below.

| 1 e & a 2 e & a 3 e & a 4 e & a | 1 e & a 2 e & a 3 e & a 4 e & a |

|-----------------3-3-3-3-2---2-0-|-2---2-0-2-0-2---2-0-----------0-|
|-2--(2)--0--(0)--3-3-3-3-3---3-3-|-3---3-3-3-3-3---3-3-3-3-2-1-2-2-|
|-2--(2)--1--(1)--0-0-0-0-2---2-0-|-2---2-0-2-0-2---2-0-2-2-2-2-2-2-|
|-2--(2)--2--(2)--0-0-0-0-0-------|-X-------0---------------2-2-2-2-|
|-0--(0)--2--(2)------------------|-0-------------------------------|
|---------0--(0)------------------|---------------------------------|

| 1 e & a 2 e & a 3 e & a 4 e & a | 1 e & a 2 e & a 3 e & a 4 e & a |

|-----------------3-3-3-3-2---2-0-|-2-0-2-0-2---0-------------------|
|-2---2-2-0--(0)--3-3-3-3-3---3-3-|-3-3-3-3-3---3---2---2-2-2-2-----|
|-2---2-2-1--(1)--2-2-2-2-2---2-0-|-2-0-2-0-2---0---2---2-2-2-2-----|
|-2---2---2--(2)------------------|---------0---0---2---2-2-4-2-----|
|-0---0---2--(2)------------------|-----------------4-3-4-------3b4-|
|---------0--(0)------------------|---------------------------------|

| 1 e & a 2 e & a 3 e & a 4 e & a | 1 e & a 2 e & a 3 e & a 4 e & a |

|-----------------3-3-3-3-2---2-0-|-2-0-2-0-2---2-0-2---2---------0-|
|---------0--(0)--3-3-3-3-3---3-3-|-3-3-3-3-3---3-3-3---3---2-1-2-2-|
|---------1--(1)--4-4-4-4-2---2-0-|-2-------2---2-0-2---2---2-2-2-2-|
|-2--(2)--2--(2)------------------|-4-----------------------2-2-2---|
|-0--(0)--2--(2)------------------|---------------------------------|
|---------0--(0)------------------|---------------------------------|

| 1 e & a 2 e & a 3 e & a | 1 e & a 2 e & a 3 e & a 4 e & a |

|-5---R---4---R-2-2---R-0-|-2--(2)-(2)-(2)-(2)-(2)-(2)-(2)--|
|-5---R---5---R-2-2---R-2-|-3--(3)-(3)-(3)-(3)-(3)-(3)-(3)--|
|-6---R---4---R-2-2---R-2-|-2--(2)-(2)-(2)-(2)-(2)-(2)-(2)--|
|-7---R---6---R-4-4---R---|-0--(0)-(0)-(0)-(0)-(0)-(0)-(0)--|
|-7---R-------------------|---------------------------------|
|-------------------------|---------------------------------|

| 1 e & a 2 e & a 3 e & a 4 e & a | 1 e & a 2 e & a 3 e & a 4 e & a |

|-------------R-3(3)2-2-0-2-----0-|-2-0-2-0-2---2-0-2---2---------0-|
|-2--(2)--2---R-3(3)3-3-3-3-----3-|-3-3-3-3-3---3-3-3---3---2-1-2-2-|
|-2--(2)--2---R-0(0)2-2-0-2-----0-|-2-------2---2-0-2---2---2-2-2-2-|
|-2--(2)--2---R-0(0)0-0-0-0-------|-4-----------------------2-2-2---|
|-0--(0)--0---R-2(2)R-------------|---------------------------------|
|---------------3(3)R-------------|---------------------------------|

| 1 e & a 2 e & a 3 e & a 4 e & a | 1 e & a 2 e & a 3 e & a 4 e & a |

|---------0---R-3(3)2-2-0-2---2-0-|-2-0-2-0-2---2-0-2---2---------0-|
|-2--(2)--2---R-3(3)3-3-3-3---3-3-|-3-3-3-3-3---3-3-3---3---2-1-2-2-|
|-2--(2)--2---R-0(0)2-2-0-2---2-2-|-2-------2---2-0-2---2---2-2-2-2-|
|-2--(2)--2---R-0(0)4-4---4-------|-4-----------------------2-2-2---|
|-0--(0)--0---R-------------------|---------------------------------|
|---------------------------------|---------------------------------|

| 1 e & a 2 e & a 3 e & a 4 e & a | 1 e & a 2 e & a 3 e & a 4 e & a |

|---------------3(3)2-2-0-2-----0-|-2-0-2-0-2---2-0-2---2---------0-|
|-2--(2)--2---R-3(3)3-3-3-3-----3-|-3-3-3-3-3---3-3-3---3---2-1-2-2-|
|-2--(2)--2---R-0(0)2-2-0-2-----0-|-2-------2---2-0-2---2---2-2-2-2-|
|-2--(2)--2---R-0(0)0-0---0-------|-4-----------------------2-2-2---|
|-0--(0)--0---R-2(2)R-------------|---------------------------------|
|---------------3(3)R-------------|---------------------------------|

| 1 e & a 2 e & a 3 e & a 4 e & a | 1 e & a 2 e & a 3 e & a 4 e & a |

|---------------3(3)2-2-0-2-----0-|-2-0-2-0-2---2-0-2---2---------0-|
|-2--(2)--2---R-3(3)3-3-3-3-----3-|-3-3-3-3-3---3-3-3---3---2-1-2-2-|
|-2--(2)--2---R-0(0)2-2-0-2-----0-|-2-------2---2-0-2---2---2-2-2-2-|
|-2--(2)--2---R-0(0)0-0---0-------|-4-----------------------2-2-2---|
|-0--(0)--0---R-2(2)R-------------|---------------------------------|
|---------------3(3)R-------------|---------------------------------|

Riff A chord diagramA majorA
| 1 e & a 2 e & a 3 e & a 4 e & a | 1 e & a 2 e & a 3 e & a 4 e & a |

|---------0---R-3(3)2-2-0-2---2-0-|-2-0-2-0-2---2-0-2-0-2-0---------|
|-2--(2)--2---R-3(3)3-3-3-3---3-3-|-3-3-3-3-3---3-3-3-3-3-3-2-1-2-1-|
|-2--(2)--2---R-0(0)2-2-0-2---2-2-|-2-0-2-0-2-------2-0-2-2-2-2-2-2-|
|-2--(2)--2---R-0(0)4-4---4-------|-------------------------2-2-2-2-|
|-0--(0)--0---R-------------------|---------------------------------|
|---------------------------------|---------------------------------|

Riff A chord diagramBB
 | 1 e & a 2 e & a 3 e & a 4 e & a | 1 e & a 2 e & a 3 e & a 4 e & a |
 =====================================================================
||---------------3(3)2-2-0-2---R-22|-2-000-222-000-222-R-------------||
||-2--(2)--2---2-3(3)3-3-3-3---R-33|-3-333-333-333-333-R-----------2-||
||.2--(2)--2---2-0(0)2-2-0-2---R-22|-2-000-222-000-222-R-2---------2.||
||.2--(2)--2---2-0(0)0-0-0-0---R-00|-0-000-000-000-000-R-2---2-----2.||
||-0--(0)--0---0-2(2)--------------|---------------------3b4-0-------||
||---------------------------------|---------------------------------||
								   ^
							        Mute at
							        this fret
								and strike
			Repeat last 2 measures
			3 more times then play
			Riff A chord diagramA majorA 1 time, Riff A chord diagramBB 2
			times, Riff A chord diagramA majorA 2 times
			then play the following:


| 1 e & a 2 e & a 3 e & a 4 e & a | 1 e & a 2 e & a 3 e & a 4 e & a |

|---------0---R-3(3)2-2-0-2---2-0-|-2---2---2---2---5---7---7-R-9---|
|-2--(2)--2---R-3(3)3-3-3-3---3-3-|-3---3---3---3---6---8---8-R-10--|
|-2--(2)--2---R-0(0)2-2-0-2---2-0-|-2---2---2---2---5---7---7-R-9---|
|-2--(2)--2---R-0(0)4-4---4-------|---------------------------------|
|-0--(0)--0---R-------------------|---------------------------------|
|---------------------------------|---------------------------------|

| 1 e & a 2 e & a 3 e & a 4 e & a | 1 e & a 2 e & a 3 e & a 4 e & a |

|(9)--X-------0---0-0-0---2---0---|-2-----------4444
|(10)-X-------3---3-3-3---3---3---|-3-----------5555
|(9)--X-------0---0-0-0---2---0---|-2-------2/444---  fades completely out
|---------0-0-0-------------------|---------4/66----
|---------3-3(3)-(3)-(3)----------|-----------------
|---------------------------------|-----------------
      ^
      Mute strings here by bring the picking hand down across
      all strings and at the same time, tap the sound board
      of the guitar with a free finger of the picking hand.

From sportiga@uoguelph.ca  Mon Nov 29 12:23:55 1993
	id AA24958; Mon, 29 Nov 93 12:23:55 -0500
	(1.37.109.4/16.2) id AA20835; Mon, 29 Nov 93 12:26:41 -0500
Reply-To: stevep@snowhite.cis.uoguelph.ca
Status: OR

Distribution: world
References: <1993Nov29.125047.18467@vax.oxford.ac.uk>
NNTP-Posting-Host: cm-nxt04.cso.uiuc.edu

In article <1993Nov29.125047.18467@vax.oxford.ac.uk> dsri@vax.oxford.ac.uk
writes:
> Does anyone out there have tab and lyrics to Led Zeppelin's Hey Hey What
Can I
> Do.
> And why didnt they put it on CODA?
>
> Thanks in advance
>
> Dave

Well, i don't have all the lyrics (someone else post it damnit!), but the
music is pretty simple.  the Intro is just A chord diagramG MajorG and then he plays this little
lick


[----------------]
[----------------]
[----------------]
[----------------]	<--- Cool Riff
[-----0----------]
[-0-2---2-0------]
[----------------]

And before the first verse he goes     A chord diagramG MajorG  A chord diagramFF  CC.......

G	D		     A chord diagramFF        C			(Cool riff)
Wanna tell you 'bout the ....

   and then the verse ...

G	D		     A chord diagramFF              A chord diagramC majorC
Wanna tell her shes the ...

Chorus:

A chord diagramG MajorG    FF   A chord diagramC majorC
	     I gotta a woman, stay .....

And that's all there is to it really.  Now if someone would just post
the lyrics.........

					g-cutri@ux4.cso.uiuc.edu



--
+----------------------------------------------------------------------------+
|  Steve Portigal, Dep't of CIS, University of Guelph, Guelph, ON, N1G 2W1   |
|  email: stevep@snowhite.cis.uoguelph.ca    Phone: (519) 824-4120 ext 3580  |
|  Remove Jamesb@nevada.edu as the "official" guitar tablature archivist!    |
|      He's big, he's purple, he's your best friend.................         |
+----------------------------------------------------------------------------+

Other versions of Hey Hey What Can I Do

Hey hey what can I doChords
Hey hey what can I do (Ver. 2)Chords
Hey hey what can I do mandolin tabTabs

Almost there ...

Sign in to get your own page with links to favourite songs and more. You are just one click away...

Login with Facebook Login with Google