Search tabs and chords

Search for song, artist or band

Log in

One click and you are in

Login with Facebook Login with Google

Why sign up and log in

Guitar Tabs Explorer
Led Zeppelin guitar tabs for Going to california (Ver. 3)

Guitar tabs

Going To California
Led Zepplin

[Intro}
E|----------------|----------------|----------------|----------------||
A|----------------|----------------|------0---0---0-|--0---0---0-----||
D|----------------|----------------|----3---5---4---|2---0---2---4-4-||
G|----------------|----------------|----------------|----------------||

Verse:
E| ----------------|----------------|----------------|----------------|
A|o----------------|----------------|2---2-0-----0-0-|--0-0-0---X-X-X-|
D|o5---5-4-------0-|--2-0-----------|0-------------4-|--4-5-4---X-X-X-|
G| ----------------|----------------|0---------------|----------------|
   Spent my days with a woman unkind.....
   Took my chances on a big jetplane.....

E|----------------|----------------|----------------|----------------|
A|0-----0---------|--0---0-------0-|0-----0---------|--0---0-------0-|
D|2-4-4-2---2-2-2-|4---0-------0---|2-4-4-2---2-2-2-|4---0-------0---|
G|----------------|--------2-4-----|----------------|--------2-4-----|

E|----------------|----------------|----------------|----------------|
A|----------------|----------X-X-X-|2---2-0-----0-0-|--0---0---0-0-0-|
D|5---5-4-------0-|--2---0---X-X-X-|0-------------4-|--5---4---0-2-0-|
G|------------4---|----------------|0---------------|----------------|

E|----------------|----------------|----------------|----------------|
A|0-----0---0---0-|0-0---0-------0-|0---------0---0-|0-0---0---------|
D|2-4-4-2---2---0-|0---4-------0---|2-4-2-5---2-2-2-|0-----------0---|
G|----------------|--------2-4-----|----------------|----2---2-4-----|

E|----------------|----------------|----------------|----------------|
A|----------------|----------------|2---2-0-------0-|--0---0---0-0-0-|
D|5---5-4-------0-|--2---0---------|0-----------0-4-|--5---4---0-2-0-|
G|------------4---|----------4-0-4-|0---------------|----------------|

E|----------------|----------------|----------------|----------------|
A|0-----0---0-0---|0-0---0-------0-|--------------0-|--0-0-----0-----|
D|2-4-4-2---2---0-|0---4-------0-4-|2---2-2---2-0---|4-----0-0---0---|
G|----------------|----7---2-4-----|----------------|----------------|

Bridge:
  ___________________________________________________________________
 |1.
E|----------------|----------------|----------------|----------------|
A|----------------|----------------|----------------|----------------|
D|----3-2-0---0---|3-2-0---0-0---0-|--------------0-|------------0-2-|
G|----------5-----|------5---------|----------2-4---|2---------4-----|
  __________________________________________________________________

E|----------------|----------------|----------------|----------------|
A|----------------|----------------|----------------|----------------|
D|----3-2-0---0---|3-2-0-5-3-2-0---|0---0---------0-|------0-------0-|
G|----------5-----|--------------5-|----------2-4---|2-2-4-----2-4---|

  __________________________________
                                    |
E|------0-------0-|------0-------0- |
A|--0-5-----0-5---|--0-5-----0-5---o|
D|----------------|----------------o|
G|----------------|---------------- |
  ________________
 |2.
E|----------------|----------------|----------------|----------------|
A|------0-------0-|------0-------0-|------0-------0-|------0---------|
D|----------------|----------------|----------------|----------------|
G|----------------|----------------|----------------|----------------|

E|----------------|----------------|----------------|----------------|
A|----0-0---0-0---|----0-0---0-0---|0-0---0-0-0---0-|----------0-4-0-|
D|----------------|----------------|----------------|5-3-3-----------|
G|----------------|----------------|----------------|----------------|

E|----------------|----------------|----------------|----------------|
A|------0-------0-|------0-------0-|------0-------0-|------0-------0-|
D|----------------|----------------|----------------|----------------|
G|----------------|----------------|----------------|----------------|

E|----------------|----------------|----------------|----------------|
A|------0---------|------0---0---0-|------0---0-0-1-|--0---0---0---0-|
D|----------------|------------3---|5---------------|--------3-------|
G|----------------|----------------|----------------|------------6---|

E|----------------|----------------|----------------|----------------||
A|------0---0-----|--0---0---0---0-|--------------0-|--0---0---0---0-||
D|2-4-4-------5-5-|4---2---0---2---|--0---2-0---2---|4---0---2---4---||
G|----------------|----------------|4---6-----------|----------------||

Verse:
E| ----------------|----------------|----------------|----------------|
A|o----------------|----------------|2---2-0-----0-0-|--0-0-0---X-X-X-|
D|o5---5-4-------0-|--2-0-----------|0-------------4-|--4-5-4---X-X-X-|
G| ----------------|----------------|0---------------|----------------|
   To find a queen without a king.....

E|----------------|----------------|----------------|----------------|
A|0-----0---------|--0---0-------0-|0-----0---------|--0---0-------0-|
D|2-4-4-2---2-2-2-|4---0-------0---|2-4-4-2---2-2-2-|4---0-------0---|
G|----------------|--------2-4-----|----------------|--------2-4-----|

E|----------------|----------------|----------------|----------------|
A|----------------|----------X-X-X-|2---2-0-----0-0-|--0---0---0-0-0-|
D|5---5-4-------0-|--2---0---X-X-X-|0-------------4-|--5---4---0-2-0-|
G|------------4---|----------------|0---------------|----------------|

E|----------------|----------------|----------------|----------------|
A|0-----0---0---0-|0-0---0-------0-|0---------0---0-|0-0---0---------|
D|2-4-4-2---2---0-|0---4-------0---|2-4-2-5---2-2-2-|0-----------0---|
G|----------------|--------2-4-----|----------------|----2---2-4-----|

E|----------------|----------------|----------------|----------------|
A|----------------|----------------|2---2-0-------0-|--0---0---0-0-0-|
D|5---5-4-------0-|--2---0---------|0-----------0-4-|--5---4---0-2-0-|
G|------------4---|----------4-0-4-|0---------------|----------------|

E|----------------|----------------|----------------|----------------|
A|0-----0---0-0---|0-0---0-------0-|--------------0-|--0-0-----0-----|
D|2-4-4-2---2---0-|0---4-------0-4-|2---2-2---2-0---|4-----0-0---0---|
G|----------------|--------2-4-----|----------------|----------------|

Outro:
E|----------------|----------------|----------------|----------------|
A|----------------|----------------|------0---0-0-0-|----------0---0-|
D|----3-2-0---0---|3-2-0-5-3-2-0---|0---4-----------|0-----------4---|
G|----------5-----|--------------5-|----------------|----------------|

E|------1-3-0-----|--0-5-0-0-------|----------------|----------------|
A|------------5-3-|5---------5-0---|----0-0---0-----|----------------|
D|----------------|--------------45|4---------------|----------------|
G|----------------|----------------|----------------|----------------|

E|------0-------0-|------0-------0-|------0-------0-|------0-------0-|
A|--0-------0-----|--0-------0-----|--0-------0-----|--0-------0-----|
D|0---0---0---0---|0---0---0---0---|0---0---0---0---|0---0---0---0---|
G|----------------|----------------|----------------|----------------|

E|------0-------0-|------0-------0-|------0-------0-|------0-------0-|
A|--0-------0-----|--0-------0-----|--0-------0-----|--0-------0-----|
D|0---0---0---0---|0---0---0---0---|0---0---0---0---|0---0---0---0---|
G|----------------|----------------|----------------|----------------|

E|----------------|----------------|----------------|
A|------0-0-0-----|--0---0---0-----|--0---0---0-----|
D|----4-------2-0-|0---4---2---2-0-|0---4---2---2-0-|
G|----------------|----------------|----------------|

E| ----------------|---------------- |
A|o--0---0---0-----|--0---0---0-----o|
D|o0---4---2---2-0-|0---4---2---2-0-o|

Other versions of Going To California

Going to CaliforniaChords
Going to California (Ver. 2)Chords
Going to CaliforniaTabs
Going to California (Ver. 2)Tabs
Going to California acousticTabs
Going to California mandolinTabs

Almost there ...

Sign in to get your own page with links to favourite songs and more. You are just one click away...

Login with Facebook Login with Google