Search tabs and chords

Search for song, artist or band

Log in

One click and you are in

Login with Facebook Login with Google

Why sign up and log in

Guitar Tabs Explorer
Led Zeppelin guitar tabs for Going to california (Ver. 2)

Guitar tabs

Tab: Going to California
Group: led zeppelin
Album: ???(it was the fourth one)
Tabbed by: Daniel Ortega Monge/san José, Costa Rica

Tunning:  e
          A chord diagramBB
          A chord diagramG MajorG
          A chord diagramD MajorD
          A chord diagramA majorA
          A chord diagramD MajorD

Tablature legend

|o-?-o|-repeat
|o-?-o|´´´^^

|-?h?-|hammer

|-?p?-|pull of

 Great song of led zeppelin, I saw some tabs of this song but I think this is the best.
This is my first tab so, sorry if there is any mistake...
If you wanna say something about this tab e-mail me to dom030891@hotmail.com
Intro:

|----0-------0-----|--0---0---0---0---0---0---0---|
|--------3---------|--10--10--10--10--10--10--10--|
|o----------------o|11--12--11--9---------------9-|
|o-----0-------0--o|----------------12--11--12----|
|------------------|------------------------------|
|--0-------0-------|------------------------------|
                    ^^^^^^^^^a bit fast^^^^^^^^^^^

|3--2---0-------3|---2---0--------|--2P0---0---0----|--2P0---0---0----|
|-0---0---0-3----|-0---0---0-3----|------3---3---3--|------3---3---3--|
|--0---0------0--|--0---0------0--|--2----2---2---2-|--2----2---2---2-|
|----------0---0-|----------0---0-|-----------------|-----------------|
|----------------|----------------|-----------------|-----------------|
|5---5---5---5---|5---5---5---5---|0----0---0---0---|0----0---0---0---|

Spend...         Smoked...        All...
Made...          Going'...         In...
Some...          Love...          In...

|--11111-1P0--0--|0H2---0--0H2---0--|--11111-1P0--0--|0H2---0--0H2---0--|
|--33333-3--3----|----3---3----3----|--33333-3--3----|----3---3----3----|
|--22222---------|------------------|--22222---------|------------------|
|0---------------|------------------|0---------------|------------------|
|--------2-------|---0---0----0---0-|--------2-------|---0---0----0---0-|
|----------------|0----0---0----0---|----------------|0----0---0----0---|

|---12---12---12---12|---12---12---12---12|
|--10---10---10---10-|--10---10---10---10-|
|-11---11---11---11--|-11---11---11---11--|
|----0----------0----|-----0---------0----|
|--------------------|--------------------|
|0--------0----------|0---------0---------|


|3--2---0-------3|---2---0--------|--2P0---0---0----|--2P0---0---0----|
|-0---0---0-3----|-0---0---0-3----|------3---3---3--|------3---3---3--|
|--0---0------0--|--0---0------0--|--2----2---2---2-|--2----2---2---2-|
|----------0---0-|----------0---0-|-----------------|-----------------|
|----------------|----------------|-----------------|-----------------|
|5---5---5---5---|5---5---5---5---|0----0---0---0---|0----0---0---0---|

Took...          Never...         same...
Sea...           Wonder...        day...
Mount...         Chil...          wake...            watch out...

|-0---0---0---0--|-0---0---0---0---|------------0----|------------0----|
|6--6---6---6---6|---6---6---6-----|--2-----2H3---3--|--2-----2H3---3--|
| --7---7---7---7-|--7---7---7---7-|-----2-----------|-----2-----------|
| 0---0---0---0---|0---0---0---0---|--2---2----2---2-|--2---2----2---2-|
| ----------------|----------------|0---0---0----0---|0---0---0----0---|
| ----------------|----------------|-----------------|-----------------|

 Seems...       nose...            sinking...
 Throw...         Meet...          high...

|3--2---0-------3|---2---0--------|--2P0---0---0----|--2P0---0---0----|
|-0---0---0-3----|-0---0---0-3----|------3---3---3--|------3---3---3--|
|--0---0------0--|--0---0------0--|--2----2---2---2-|--2----2---2---2-|
|----------0---0-|----------0---0-|-----------------|-----------------|
|----------------|----------------|-----------------|-----------------|
|5---5---5---5---|5---5---5---5---|0----0---0---0---|0----0---0---0---|

To..             she..             and..
Ride..           trying..          never..
Stand..          telli..           as..

|--11111-1P0--0--|0H2---0--0H2---0--|--11111-1P0--0--|0H2---0--0H2---0--|
|--33333-3--3----|----3---3----3----|--33333-3--3----|----3---3----3----|
|--22222---------|------------------|--22222---------|------------------|
|0---------------|------------------|0---------------|------------------|
|--------2-------|---0---0----0---0-|--------2-------|---0---0----0---0-|
|----------------|0----0---0----0---|----------------|0----0---0----0---|


Ending

|----2P0---0---0----|--2P0---0---0------|
|--------3---3---3--|------3---3---3----|
|O---2----2---2---2-|--2----2---2---2--O|          fade out...
|O------------------|------------------O|
|-------------------|-------------------|
|--0----0---0---0---|0----0---0---0-----|

 Ahhhhh.....      Ahhhhh.....      AahhAahh....
 Ahhhhh.....      Ahhhhh.....      AahhAahh.....


AND THIS IS THE LETTER...

                                      GOING TO CALIFORNIA
                                        BY: LED ZEPPELIN

"SPEND MY DAYS WITH A chord diagramA majorA WOMAN UNKIND,
SMOKED MY STUFF AND DRANG,
ALL MY WINE,
MADE UP MY MIND,
MAKE A chord diagramA majorA NEW START,
GOING' TO CALIFORNIA WITH AN ACHING,
IN MY HEART,
SOMEONE TOLD ME THERE'S A chord diagramA majorA GIRL OUT THERE,
WITH LOVE IN HER EYES AND FLOWERS,
IN HER HAIR"

"TOOK MY CHANCES ON A chord diagramA majorA BIG JET PLANE,
NEVER LET THEM TELL YA' THAT THEY'RE ALL THE SAME,
OH, THE SEA WAS RED AND THE SKY WAS GREY,
WONDERED HOW TOMORROW,
COULD EVER FOLLOW TODAY,
MOUNTAIN AND THE CANYONS START TO TREMBLE AND SHAKE,
CHILDREN OF THE SUN BEGIN,
TO AWAKE, WATCH OUT"

"SEEMS THAT THE WARTH OF THE GODS GOT A chord diagramA majorA PUNCH ON THE NOSE AND IT STARTED TO FLOW,
I THINK IT MIGHT BE SINKING'
THROW ME A chord diagramA majorA LINE IF I REACH IT IN TIME,
MEET YOU UP THERE WHERE THE PATH RUNS STRAIGHT AND HIGH"

"TO FIND A chord diagramA majorA QUEEN,
WITHOUT A chord diagramA majorA KING,
THEY SAY SHE PLAYS GUITAR AND CRIES,
AND SINGS. LA, LA, LA, LA, LA
RIDE A chord diagramA majorA WHITE MARE IN THE FOOT-STEPS OF DAWN,
TRYING TO FIND A chord diagramA majorA WOMAN WHO'S NEVER, NEVER, NEVER BEEN BORN.
STANDING ON A chord diagramA majorA HILL IN THE MONUTATIN OF DREAMS,
TELLING' MYSELF IT'S NOT AS HARD, HARD, HARD AS IT SEEMS, MMM HA"

Other versions of Going To California

Going to CaliforniaChords
Going to California (Ver. 2)Chords
Going to CaliforniaTabs
Going to California (Ver. 3)Tabs
Going to California acousticTabs
Going to California mandolinTabs

Almost there ...

Sign in to get your own page with links to favourite songs and more. You are just one click away...

Login with Facebook Login with Google