Search tabs and chords

Search for song, artist or band

Log in

One click and you are in

Login with Facebook Login with Google

Why sign up and log in

Guitar Tabs Explorer
Led Zeppelin bass tabs for Dyer maker (Ver. 2)

Bass tabs

INTRO:

G   |----------------|----------------|----------------|----------------|
D   |--------2-3-5---|----------------|----------------|----------------|
A   |3---3---*-------|0---0---0-3-0---|----------------|------------0*--|
E   |----------------|----------------|1---1---1-------|3--3--3---3-----|

VERSE: (note the change in the first measure)

G   |----------------|----------------|----------------|----------------|
D   |--------2-3-5---|----------------|----------------|----------------|
A   |3---3-3-*-------|0---0---0-3-0---|----------------|------------0*--|
E   |----------------|----------------|1---1---1-------|3--3--3---3-----|

CHORUS:

G   |----------------|----------------|----------------|----------------|
D   |----------------|----------------|----------------|----------------|
A   |----------------|----------------|----------------|----------------|
E   |5-5-*-5-5-*-----|5-5-*-5-5-*-----|3-3-*-3-3-*-----|3-3-*-3-3-*-----|

BRIDGE:

G   |----------------|----------------|
D   |----------------|----------------|
A   |----------------|----------------|
E   |1---------------|3---------------|


SONG STRUCTURE:
INTRO x 1
VERSE x 8
CHORUS x 3
BRIDGE x 1
VERSE x 6
CHORUS x 3
BRIDGE x 1
VERSE x until the end of song

Other versions of Dyer Maker

Dyer makerBass tabs

Almost there ...

Sign in to get your own page with links to favourite songs and more. You are just one click away...

Login with Facebook Login with Google