Search tabs and chords

Search for song, artist or band

Log in

One click and you are in

Login with Facebook Login with Google

Why sign up and log in

Guitar Tabs Explorer
Led Zeppelin guitar tabs for Cmon everybody

Guitar tabs with lyrics

this is from their concert ate the royal albert hall
solo might have a few mistakes but it's pretty close

E----------------------------------------------------|
B----------------------------------------------------|
G----------------------------------------------------|4x
D----------------------------------------------------|use whammy bar or bend
A----------------------------------------------------|it near the tuner
E--0b-0-0-0b-0-0-0b-0-0b-0-0-0-----------------------|

E-------------------------------------------------------------|
B-------------------------------------------------------------|
G-------------------------------------------------------------|2x
D-2-2-2-2-2-2-2-2-7-7-7-7-7-7-7-7-9-9-7-7-2-------------------|
A-2-2-2-2-2-2-2-2-7-7-7-7-7-7-7-7-9-9-7-7-2-2-4-2-4-----------|
E-0-0-0-0-0-0-0-0-5-5-5-5-5-5-5-5-7-7-5-5-0-------------------|

 A chord diagramE MajorE
C'mon everybody let's get together tonight
A chord diagramE MajorE
I got some money in my jeans and I'm really gonna spend it right
A chord diagramA majorA                        A chord diagramBB
Been a-doin' my homework all week long
A chord diagramA majorA                   A chord diagramBB
The house is empty, the folks are gone
A chord diagramE MajorE
Ooo C'mon everybody

E-------------------------------------------------------------|
B-------------------------------------------------------------|
G-------------------------------------------------------------|2x
D-2-2-2-2-2-2-2-2-7-7-7-7-7-7-7-7-9-9-7-7-2-------------------|
A-2-2-2-2-2-2-2-2-7-7-7-7-7-7-7-7-9-9-7-7-2-2-4-2-4-----------|
E-0-0-0-0-0-0-0-0-5-5-5-5-5-5-5-5-7-7-5-5-0-------------------|

A chord diagramE MajorE
Well my baby's number one but I'm gonna dance with three or four
A chord diagramE MajorE
And the house'll be shakin' from my bare feet slappin' the floor
A chord diagramA majorA                        A chord diagramBB
When you hear that music you can't sit still
A chord diagramA majorA                              A chord diagramBB
If your brother won't rock you then your sister will
A chord diagramE MajorE
Ooo C'mon everybody

E-------------------------------------------------------------|
B-------------------------------------------------------------|
G-------------------------------------------------------------|2x
D-2-2-2-2-2-2-2-2-7-7-7-7-7-7-7-7-9-9-7-7-2-------------------|
A-2-2-2-2-2-2-2-2-7-7-7-7-7-7-7-7-9-9-7-7-2-2-4-2-4-----------|
E-0-0-0-0-0-0-0-0-5-5-5-5-5-5-5-5-7-7-5-5-0-------------------|

Solo (1:22)
E-------------------------------------------------12-15-15br-12---|
B---------------------------------------12-15-15b-----------------|
G-14b-14b-14bp12----14p12-14p12------14---------------------------|
D----------------12-------------12-12-----------------------------|
A-----------------------------------------------------------------|
E-----------------------------------------------------------------|

E-12-15-15br-12------------------12-15br-12-15br-12-15-17br-15-12----|
B---------------15b--15p12-15p12-------------------------------------|
G--------------------------------------------------------------------|
D--------------------------------------------------------------------|
A--------------------------------------------------------------------|
E--------------------------------------------------------------------|

E----------------------------3-5-5br-3-5-5brp3-------3-5-5br-3-5-5brp3---|
B-15-15brp12--------------3h5------------------5--3h5------------------5-|
G------------14brp12-----------------------------------------------------|
D--------------------14--------------------------------------------------|
A------------------------------------------------------------------------|
E------------------------------------------------------------------------|

E-5-3-5-3-5brp3---|
B---------------5-|
G-----------------|
D-----------------|
A-----------------|
E-----------------|

E-------------------------------------------------------------|
B-------------------------------------------------------------|
G-------------------------------------------------------------|2x
D-2-2-2-2-2-2-2-2-7-7-7-7-7-7-7-7-9-9-7-7-2-------------------|
A-2-2-2-2-2-2-2-2-7-7-7-7-7-7-7-7-9-9-7-7-2-2-4-2-4-----------|
E-0-0-0-0-0-0-0-0-5-5-5-5-5-5-5-5-7-7-5-5-0-------------------|

A chord diagramE MajorE
Well we'll really have a party but we gotta put a guard outside
A chord diagramE MajorE
If my folks come home I'm afraid they're gonna have my hide
A chord diagramA majorA                         A chord diagramBB
They'll be no more movies for a week or two
A chord diagramA majorA                     A chord diagramBB
No more runnin' round with the usual crew
A chord diagramE MajorE
Who cares C'mon everybody

E-------------------------------------------------------------|
B-------------------------------------------------------------|
G-------------------------------------------------------------|3x
D-2-2-2-2-2-2-2-2-7-7-7-7-7-7-7-7-9-9-7-7-2-------------------|
A-2-2-2-2-2-2-2-2-7-7-7-7-7-7-7-7-9-9-7-7-2-2-4-2-4-----------|
E-0-0-0-0-0-0-0-0-5-5-5-5-5-5-5-5-7-7-5-5-0-------------------|

E--------------------------------------------0-----------------|
B--------------------------------------------0-----------------|
G--------------------------------------------1-----------------|
D-2-2-2-2-2-2-2-2-7-7-7-7-7-7-7-7-9-9-7-7-2--2-----------------|
A-2-2-2-2-2-2-2-2-7-7-7-7-7-7-7-7-9-9-7-7-2--2-----------------|
E-0-0-0-0-0-0-0-0-5-5-5-5-5-5-5-5-7-7-5-5-0--0-----------------|

Almost there ...

Sign in to get your own page with links to favourite songs and more. You are just one click away...

Login with Facebook Login with Google