Search tabs and chords

Search for song, artist or band

Log in

One click and you are in

Login with Facebook Login with Google

Why sign up and log in

Guitar Tabs Explorer
Led Zeppelin guitar tabs for Bron yr aur

Guitar tabs

Song : Bron-Yr-Aur (Physical Graffiti 1975)
Tuning: CACGCE
Transcriber: Phil Champ (phil.champ@ntlworld.com)

                                                      
E||-------------------------|-------------------------|
C||-----------0-------------|-----------0-------------|
G||--------0-----------0----|--------0-----------0----|
C||-----------------0-------|-----------------0-------|
A||--0h3--------------------|--0h3--------------------|
C||--------------0----------|--------------0----------|
                                                     
|-----------0--------------|-----------0--------------|
|-----------------------0--|-----------------------0--|
|--------0-----------0-----|--------0-----------0-----|
|-----------------0--------|-----------------0--------|
|--0h3---------------------|--0h3---------------------|
|--------------0-----------|--------------0-----------|


                                                     
|-----------0--------------|-----------0--------------|
|-----------------------0--|-----------------------0--|
|--------0-----------0-----|--------0-----------0-----|
|-----------------0--------|-----------------0--------|
|--0h3---------------------|--0h3---------------------|
|--------------0-----------|--------------0-----------|


                                                    
|-----------0--------------|-----------0-------------|
|-----------------------0--|-------------------------|
|--------0-----------0-----|--------0-----------0----|
|-----------------0--------|-----------------0-------|
|--0h3---------------------|--0h3--------------------|
|--------------0-----------|--------------0----------|

                                                    
|-----------3p0------------|-------------------------|
|--2--------------2-----0--|-----------0-------------|
|-----0--------------0-----|--------0-----------0----|
|--------2--------2--------|-----0-----------0-------|
|--2----------2------------|--3----------------------|
|--------------------------|--------0-----0----------|


                                                    
|-----------0-----------0--|-------------------------|
|--5--------------------0--|-----------0-------------|
|-----4-----------4-----0--|--------0-----------0----|
|--------0-----------0-----|-----0-----------0-------|
|--5-----------5-----------|--3----------------------|
|--------------------------|--------0-----0----------|


                                                    
|-----------3p0------------|-------------------------|
|--2--------------2--------|-----------0-------------|
|-----0--------------0-----|--------0-----------0----|
|--------2--------------0--|-----0-----------0-------|
|--2----------2------------|--3----------------------|
|--------------------------|--------0-----0----------|


                                                    
|-----------0--------------|-------------------------|
|--5--------------------0--|-----------0-------------|
|-----4-----------4--------|--------0----------------|
|--------0-----------0-----|-----0-----------0-------|
|--5-----------5-----------|--3----------------------|
|--------------------------|--------0-----0-----0----|


                                                    
|-----------------------0--|-------------------------|
|-----------0--------------|-----------0-------------|
|--0-----------------0-----|--------0-----------0----|
|-----0-----------0--------|-----------------0-------|
|--------0-----0-----------|--0h3--------------------|
|--0-----------------0-----|--------------0----------|


                                                    
|-----------------------0--|-------------------------|
|-----------0--------------|-----------0-------------|
|--0-----------------0-----|--------0-----------0----|
|-----0-----------0--------|-----------------0-------|
|--------0-----0-----------|--0h3--------------------|
|--0-----------------0-----|--------------0----------|


                                                    
|-----------3p0------------|-------------------------|
|--2--------------2-----0--|-----------0-------------|
|-----0--------------0-----|--------0-----------0----|
|--------2--------2--------|-----0-----------0-------|
|--2----------2------------|--3----------------------|
|--------------------------|--------0-----0----------|


                                                    
|-----------0-----------0--|-------------------------|
|--5--------------------0--|-----------0-------------|
|-----4-----------4-----0--|--------0-----------0----|
|--------0-----------0-----|-----0-----------0-------|
|--5-----------5-----------|--3----------------------|
|--------------------------|--------0-----0----------|


                                                      
|---------------------------|--------------------------|
|------------0-----------2/-|-----------4-----------0--|
|---------0-----------0-----|--------4-----------0-----|
|------0-----------2--------|-----4-----------4--------|
|--0h3----------2-----------|--0-----------0-----------|
|---------------------------|--------------------------|


                                                      
|---------------------------|--------------------------|
|------------0-----------2/-|-----------4-----------0--|
|---------0-----------0-----|--------4-----------0-----|
|------0-----------2--------|-----4-----------4--------|
|--0h3----------2-----------|--0-----------0-----------|
|---------------------------|--------------------------|


                                                         
|----------------------------|----------------------------|
|------------0-----------2/--|-----------4h5p4--------4h5p|
|---------0-----------0------|--------4------------4------|
|------0-----------2---------|-----4------------4---------|
|--0h3----------2------------|--0------------0------------|
|----------------------------|----------------------------|


                                                     
|--------------------------|--------------------------|
|--4--------4-----------5--|-----------4-----------4/-|
|--------4-----------4-----|--------4-----------4-----|
|-----4-----------4--------|-----4-----------4--------|
|--0-----------0-----------|--0-----------0-----------|
|--------------------------|--------------------------|


                                                       
|---------------------------|---------------------------|
|--5--------5------------0--|------------0-----------0--|
|--------5------------7-----|---------0-----------0-----|
|-----5------------7--------|------0-----------0--------|
|---------------------------|--0h3----------------------|
|--5----------5/7-----------|---------------0-----------|


                                                        
|---------------------------|---------------------------|
|------------5-----7-----0--|------------0-----------0--|
|---------5-----------7-----|---------0-----------0-----|
|------5--------------------|------0-----------0--------|
|---------------------------|--0h3----------------------|
|--2/5---------5/7----------|---------------0-----------|


                                                      
|---------------------------|---------------------------|
|-----------5------------0--|------------0-----------0--|
|--------5------------7-----|---------0-----------0-----|
|-----5------------7--------|------0-----------0--------|
|---------------------------|--0h3----------------------|
|--5----------5/7-----------|---------------0-----------|


                                                      
|---------------------------|---------------------------|
|-----------5------------0--|------------0-----------0--|
|--------5------------7-----|---------0-----------0-----|
|-----5------------7--------|------0-----------0--------|
|---------------------------|--0h3----------------------|
|--5----------5/7-----------|---------------0-----------|


                                                    
|-----------3p0------------|-------------------------|
|--2--------------2-----0--|-----------0-------------|
|-----0--------------0-----|--------0-----------0----|
|--------2--------2--------|-----0-----------0-------|
|--2----------2------------|--3----------------------|
|--------------------------|--------0-----0----------|


                                                    
|-----------0-----------0--|-------------------------|
|--5--------------------0--|-----------0-------------|
|-----4-----------4-----0--|--------0-----------0----|
|--------0-----------0-----|-----0-----------0-------|
|--5-----------5-----------|--3----------------------|
|--------------------------|--------0-----0----------|


                                                    
|-----------3p0------------|-------------------------|
|--2--------------2--------|-----------0-------------|
|-----0--------------0-----|--------0-----------0----|
|--------2--------------0--|-----0-----------0-------|
|--2----------2------------|--3----------------------|
|--------------------------|--------0-----0----------|


                                                    
|-----------0--------------|-------------------------|
|--5--------------------0--|-----------0-------------|
|-----4-----------4--------|--------0----------------|
|--------0-----------0-----|-----0-----------0-------|
|--5-----------5-----------|--3----------------------|
|--------------------------|--------0-----0-----0----|


                                                    
|-----------------------0--|-------------------------|
|-----------0--------------|-----------0-------------|
|--0-----------------0-----|--------0-----------0----|
|-----0-----------0--------|-----------------0-------|
|--------0-----0-----------|--0h3--------------------|
|--0-----------------0-----|--------------0----------|


                                                    
|-----------------------0--|-------------------------|
|-----------0--------------|-----------0-------------|
|--0-----------------0-----|--------0-----------0----|
|-----0-----------0--------|-----------------0-------|
|--------0-----0-----------|--0h3--------------------|
|--0-----------------0-----|--------------0----------|


                                                    
|-----------3p0------------|-------------------------|
|--2--------------2-----0--|-----------0-------------|
|-----0--------------0-----|--------0-----------0----|
|--------2--------2--------|-----0-----------0-------|
|--2----------2------------|--3----------------------|
|--------------------------|--------0-----0----------|


                                                     
|-----------0-----------0--|--------------------------|
|--5--------------------0--|-----------0-----------0--|
|-----4-----------4-----0--|--------0-----------0-----|
|--------0-----------0-----|-----0-----------0--------|
|--5-----------5-----------|--3-----------------------|
|--------------------------|--------0-----0-----------|


                                                      
|--------------------------|---------------------------|
|-----------0-----------2/-|-----------4h5p4--------0--|
|--------0-----------0-----|--------4------------4-----|
|-----0-----------2--------|-----4------------4--------|
|--3-----------2-----------|--0------------0-----------|
|--------------------------|---------------------------|


                                                       
|---------------------------|---------------------------|
|------------0-----------2/-|-----------4h5p4--------0--|
|---------0-----------0-----|--------4------------4-----|
|------0-----------2--------|-----4------------4--------|
|--0h3----------2-----------|--0------------0-----------|
|---------------------------|---------------------------|


                                                       
|---------------------------|---------------------------|
|------------0-----------2--|-----------4h5p4--------4--|
|---------0-----------0-----|--------4------------4-----|
|------0-----------2--------|-----4------------4--------|
|--0h3----------2-----------|--0------------0-----------|
|---------------------------|---------------------------|


                                                     
|--------------------------|--------------------------|
|-----------5-----------4--|-----------5-----------4/-|
|--------4-----------4-----|--------4-----------4-----|
|-----4-----------4--------|-----4-----------4--------|
|--0-----------0-----------|--0-----------0-----------|
|--------------------------|--------------------------|


                                                      
|---------------------------|---------------------------|
|--5--------5------------0--|------------0-----------0--|
|--------5------------7-----|---------0-----------0-----|
|-----5------------7--------|------0-----------0--------|
|---------------------------|--0h3----------------------|
|--5----------5/7-----------|---------------0-----------|


                                                       
|---------------------------|---------------------------|
|------------5-----7-----0--|------------0-----------0--|
|---------5-----------7-----|---------0-----------0-----|
|------5--------------------|------0-----------0--------|
|---------------------------|--0h3----------------------|
|--2/5---------5/7----------|---------------0-----------|


                                                       
|---------------------------|---------------------------|
|------------5-----7-----0--|------------0-----------0--|
|---------5-----------7-----|---------0-----------0-----|
|------5--------------------|------0-----------0--------|
|---------------------------|--0h3----------------------|
|--2/5---------5/7----------|---------------0-----------|


                                                     
|---------------------------|---------------------------|
|------------5-----7-----0--|------------0-----------0--|
|---------5-----------7-----|---------0-----------0-----|
|------5--------------------|------0-----------0--------|
|---------------------------|--0h3----------------------|
|--2/5---------5/7----------|---------------0-----------|


                                                     
|--------------------------|--------------------------|
|-----------4-----------5--|-----------4-----------5--|
|--------4-----------4-----|--------4-----------4-----|
|-----4-----------4--------|-----4-----------4--------|
|--0-----------0-----------|--0-----------0-----------|
|--------------------------|--------------------------|


                                                     
|-----------------------0--|-----------------------0--|
|-----------4--------------|-----------0--------0-----|
|--------4-----------4-----|--------0--------5--------|
|-----4-----------4--------|-----5--------7-----------|
|--0-----------0-----------|--7-----------------------|
|--------------------------|--------------------------|


                                                     
|-----------0-----------0--|-----------0-----------0--|
|--------5-----------5-----|--------5-----------5-----|
|-----7-----------7--------|-----7-----------7--------|
|--0-----------0-----------|--0-----------7-----------|
|--------------------------|--------------------------|
|--------------------------|--------------------------|


                                               
|-----------0-----------0--|-------------------||
|--------5-----------5-----|--0----------------||
|-----7-----------7--------|--0----------------||
|--0-----------7-----------|--0----------------||
|--------------------------|--3----------------||
|--------------------------|--0----------------||

Other versions of Bron Yr Aur

Bron yr aur stompTabs
Bron yr aur stomp standardTabs

Almost there ...

Sign in to get your own page with links to favourite songs and more. You are just one click away...

Login with Facebook Login with Google