Search tabs and chords

Search for song, artist or band

Log in

One click and you are in

Login with Facebook Login with Google

Why sign up and log in

Guitar Tabs Explorer
Led Zeppelin guitar tabs for Bron yr aur stomp standard

Bron Yr Aur Stomp Standard tab by Led Zeppelin

Led Zeppelin guitar tabs for Bron yr aur stomp standard

Guitar tabs

BRON YR AUR STOMP


Standard tuning
tempo = 110 bpm

E--12--7--------------1-(1)---------|--12--7--------------1-(1)-----------
B--12--7--------1-----------1-------|--12--7--------1-----------1---------
G--13--8----/2-----2-----------2----|--13--8----/2-----------2------------
D--14--9-----------------3----------|--14--9-----------3-----------3------
A--14--9----------------------------|--14--9------------------------------
D--12--7----------------------------|--12--7------------------------------

-------1-(1)-----1-(1)----------|---------1-(1)-----1-(1)-----------------
---1---------1---------1--------|-----1---------1---------1---------------
-2--------2---------2------0----|--/2--------2---------2--------0---------
-----3---------3---------3---3--|-------3---------3---------3----3--------
--------------------------------|-----------------------------------------
--------------------------------|-----------------------------------------

				        P         P       H
---------1-(1)-----1-(1)--------------|-----------------------------------
-----1---------1---------1---3--------|---------1-(1)---1-----------------
--/2--------2---------2--------0------|--/2-3-3----2----2-------6-6-6-6-6-
-------3---------3---------3----3-----|----------------33-----0-3-3---3-3-
--------------------------------------|-------------------6-6-------------
--------------------------------------|-----------------------------------

     P         P       P                   P         P         P
-------------------------------------|--------------------------------------
-----------(1)---------------(1)-----|---1-----1-(1)---1-1-(1)--------------
--/2---6-6--2----6-------6-6---------|--/2--------2---------2----6---0-6----
-----3-3-------3-3-3-3-3-3----0--3---|-----3-3-------3--------3--3-----3----
---------------------------------6---|--------------------------------------
-------------------------------------|--------------------------------------

    H     H                              H     H
-------------------------------------|--------------------------------------
----------1-(1)-1--------------------|---------1----------------------------
-(6)--6---0--0------6-6-6---6-(6)-6--|-----6---0---6---6-(6)--6-0-6---------
--0-0-3-3---------3---3---3----2--0--|---0-3-3---3---3----3----3---0-33-----
-------------------------------------|-6------------------------------------
-------------------------------------|--------------------------------------

	      Strum Pattern ->            ___          __       __
			          |  |   |   |  |  |  |  |  |  |  |
--------------------------------|--------------------------------------
--1--1--------------------------|--------------------------------------
--------------------------------|--------------------------------------
----------6--6--6--9--9--[9]----|-3--3--(3)--3--3--6--6--6--8--8-------
--------6-6--6--6--9--9--[9]----|----3--(3)--3--3--6--6--6--8--8-------
----------4--------7--7---------|----1--(1)--1--1--4--4--4--6--6-------

     __ ___ ___ ___                         __ __ __ __       __
 |  |  |   |   |   |   |  |  |  |       |  |  |  |  |  |  |  |  |  |  |
-------------------------------------|--------------------------------------
-------------------------------------|--------------------------------------
-------------------------------------|--------------------------------------
-3--3--3--(3)--3--[3]--3--3--6--6----|--3--3--3--3--3--3--6--6--6--8--8-----
-3--3--3--(3)--3--[3]--3--3--6--6----|--3--3--3--3--3--3--6--6--6--8--8-----
-1--1--1---1---1---1---1--1--4--4----|--1--1--1--1--1--1--4--4--4--6--6-----

     __ __ __ __ __ __ __ __ __ __ __ __ __
 |  |  |  |  |  |  |  |  |  |  |  |  |  |  |
---------------------------------------------|------------------------------
---------------------------------------------|--Repeat last measure---------
---------------------------------------------|--Except that first 8th note--
-3--3--3--3--3--3--3--3--3--3--3--3--3--3--3-|--is two 16th notes-----------
-3--3--3--3--3--3--3--3--3--3--3--3--3--3--3-|---(i.e) different strum pat.-
-1--1--1--1--1--1--1--1--1--1--1--1--1--1--1-|-------------------------------
     __ __ __ __                               __
 |  |  |  |  |  |           P           |  |  |  |  |           P
--------------------------------------|------------------------------------
--------------------------------------|------------------------------------
--------------------------------------|------------------------------------
-3--3--3--3--3--3--6-3-3-3-(3)-3-3----|-3--3--3--3--3--3--6-3-3-3-(3)-3-3--
-3--3--3--3--3--3----3-3-6-(3)-3-3----|-3--3--3--3--3--3----3-3-6-(3)-3-3--
---------------------------------1-3--|-------------------------------1-3--

|  |  |  |  |  |           P           |  |  |  |  |           P
--------------------------------------|------------------------------------
--------------------------------------|------------------------------------
--------------------------------------|------------------------------------
-3--3--3--3--3--3--6-3-3-3-(3)-3-3----|-3--3--3--3--3--3--6-3-3-3-(3)-3-3--
-3--3--3--3--3--3----3-3-6-(3)-3-3----|-3--3--3--3--3--3----3-3-6-(3)-3-3--
---------------------------------1-3--|-------------------------------1-3-

       	 __       __                      __          __
  |  |  |  |  |  |  |  |  |  |     |  |  |  |  |  |  |  |  |  |
--------------------------------|---------------------------------------
--------------------------------|---------------------------------------
--------------------------------|---------------------------------------
--8--8--8--8--8--8--8--8--3--6--|--7--8--8--8--3--8--8--8--3--6---------
--8--8--8--8--8--8--8--8--3--6--|--7--8--8--8--3--8--8--8--3--6---------
--6--6--6--6--6--6--6--6--1--4--|--5--6--6--6--1--6--6--6--1--4---------
 Ah...                  Caught   smil-ing      at me     that's
			 you                                 the

	 __          __                   __          __
  |  |  |  |  |  |  |  |  |  |     |  |  |  |  |  |  |  |  |  |
--------------------------------|--------------------------------------
--------------------------------|--------------------------------------
--------------------------------|--------------------------------------
--8--8--8--8--8--8--8--8--3--6--|--8--8--8--8--8--8--8--8--6--6--------
--8--8--8--8--8--8--8--8--3--6--|--8--8--8--8--8--8--8--8--6--6--------
--6--6--6--6--6--6--6--6--1--4--|--5--6--6--6--1--6--6--6--4--4--------
 way it     should      like a   leaf is to    a tree     so
	        be

	 __                                  __
  |  |  |  |  |           P           |  |  |  |  |           P
--------------------------------------|------------------------------------
--------------------------------------|------------------------------------
--------------------------------------|------------------------------------
-3--3--3--3--3--3--6-3-3-3-(3)-3-3----|-3--3--3--3--3--3--6-3-3-3-(3)-3-3--
-3--3--3--3--3--3----3-3-6-(3)-3-3----|-3--3--3--3--3--3----3-3-6-(3)-3-3--
---------------------------------1-3--|-------------------------------1-3-
 fine

      __       __       __              __       __
  |  |  |  |  |  |  |  |  |  |      |  |  |  |  |  |  |  |  |  |  |
---------------------------------|--------------------------------------
---------------------------------|--------------------------------------
---------------------------------|--------------------------------------
--5--5--5--5--5--5--5--5--5--5---|--8--8--8--8--8--8--8--8--3--6--8-----
--5--5--5--5--5--5--5--5--5--5---|--8--8--8--8--8--8--8--8--3--6--8-----
--3--3--3--3--3--3--3--3--3--3---|--6--6--6--6--6--6--6--6--1--4--6-----

      __       __                           __       __
  |  |  |  |  |  |  |  |  |             |  |  |  |  |  |  |  |
-------------------------------------|---------------------------------------
-------------------------------------|---------------------------------------
-------------------------------------|---------------------------------------
--3--3--3--3--3--3--3--6--8----------|--3--3--3--3-(3)--3--3--6--------------
--3--3--3--3--3--3--3--6--8----------|--3--3--3--3-(3)--3--3--6--------------
--1--1--1--1--1--1--1--4--6----------|--1--1--1--1-(1)--1--1-----------------


	 __



	__                                  __
  |  |  |  |  |           P           |  |  |  |  |           P
--------------------------------------|------------------------------------
--------------------------------------|------------------------------------
--------------------------------------|------------------------------------
-3--3--3--3--3--3--6-3-3-3-(3)-3-3----|-3--3--3--3--3--3--6-3-3-3-(3)-3-3--
-3--3--3--3--3--3----3-3-6-(3)-3-3----|-3--3--3--3--3--3----3-3-6-(3)-3-3--
---------------------------------1-3--|-------------------------------1-3-
Then the whole thing basically repeats once again from the beginning,
but the next time you come to the end, instead of the above cascade, play
this...a little sliding thing that introduces a new riff for the bridge verse.

    __ __ __          __ __ __              __ __ __                __
   |  |  |  |  |  |  |  |  |  |  |  |      |  |  |  |  |  |  |  |  |  |
---------------------------------------|-------------------------------------
--10/13-13-13-------10/13-13-13-13-----|--10/13-13-13-13---------------------
--10/14-14-14-------10/14-14-14-14-----|--10/14-14-14-14---------------------
---------------3--3-----------------3--|------------------3--6--8--3--3--3---
---------------3--3-----------------3--|------------------3--6--8--3--3--3---
---------------1--1-----------------1--|------------------1--4--6--1--1--1---


    __ __ __          __ __ __              __ __ __                __
   |  |  |  |  |  |  |  |  |  |  |  |      |  |  |  |  |  |  |  |  |  |
---------------------------------------|-------------------------------------
--10/13-13-13-------10/13-13-13-13-----|--10/13-13-13-13---------------------
--10/14-14-14-------10/14-14-14-14-----|--10/14-14-14-14---------------------
---------------3--3-----------------3--|------------------3--6--8--3--3--3---
---------------3--3-----------------3--|------------------3--6--8--3--3--3---
---------------1--1-----------------1--|------------------1--4--6--1--1--1--- My          My       la    de la          Come on    now     ain't
		   					          too far


-------------------------------------|--------------------------------------
--------------------4--4--------1----|--------------------4--4--4-----1-----
--13---------------/2--2-------------|--13---------------/2--2------2------
--14--3--10-3--3----------3--------3-|--14--3--3--10-3-------------------3--
--14--3--10-3--3---------------------|--14--3--3--10-3----------------------
--12--1--81-1--1-------------3-------|--12--1--1--8--1----------------------


-------1-(1)-----1-(1)----------|---------1-(1)-----1-(1)-----------------
---1---------1---------1--------|-----1---------1---------1---------------
-/2--------2---------2------0---|--/2--------2---------2--------0---------
-----3---------3---------3---3--|-------3---------3---------3----3--------
--------------------------------|-----------------------------------------
--------------------------------|-----------------------------------------


     P         P       P                   P         P         P
-------------------------------------|--------------------------------------
-----------(1)---------------(1)-----|---1-----1-(1)---1-1-(1)--------------
--/2---6-6--2----6-------6-6---------|--/2--------2---------2----6---0-6----
-----3-3-------3-3-3-3-3-3----0--3---|-----3-3-------3--------3--3-----3----
---------------------------------6---|--------------------------------------
-------------------------------------|--------------------------------------

Copyright 2003




____________________________________________________________

Almost there ...

Sign in to get your own page with links to favourite songs and more. You are just one click away...

Login with Facebook Login with Google