Search tabs and chords

Search for song, artist or band

Log in

One click and you are in

Login with Facebook Login with Google

Why sign up and log in

Guitar Tabs Explorer
Led Zeppelin guitar tabs for Babe im gonna leave you

Guitar tabs with lyrics

Title: "Babe I’m Gonna Leave You"
Album: Led Zeppelin

Here’s my interpretation of this beautiful song.  I noticed
that none of the prior submissions included the outro. I’ve
also tabbed out some of the song parts that I felt weren’t
as detailed as they could be.
Thanks to all who submit and  play and especially to
and helps us all.         Peace,  alan
Intro:
-------0---------|-----------------|-----------------|-----------------|------
---------------1-|-------3-------1-|-------3-------1-|-------1-------0-|------
-2---2-------2---|-----0-------0---|-----2-------2---|-----2-------1---|------
---2-------2-----|---2-------2-----|---0-------0-----|---3-------2-----|------
-0-------0-------|-----------------|-----------------|-----------------|------
-----------------|-3-------3-------|-2-------2-------|-1-------0-------|------
                                                               *grace note

-------3-------0-|-------3-------0-|-----------------|-----------------||-----
-----------------|-----------------|-------3-------1-|-------1-------0-||-----
-----2-------2---|-----0-------0---|-----2-------2---|-----2-------1---||-----
---2-------2-----|---2-------2-----|---0-------0-----|---3-------2-----||-----
-0-------0-------|-----------------|-----------------|-----------------||-----
-----------------|-3-------3-------|-2-------2-------|-1-------0-------||-----
                                                               *
Verse:
-------3---------|-----------------|-----------------|----------------||---||-
---------------1-|-------3-------1-|-------3-------1-|-------1-------0||---||-
-----2-------2---|-----0-------0---|-----2-------2---|-----2-------1--||rpt||-
---2-------2-----|---2-------2-----|---0-------0-----|---3-------2----||2x-||-
-0-------0-------|-----------------|-----------------|----------------||---||-
-----------------|-3-------3-------|-2-------2-------|-1-------0------||---||-
 Babe...                                                       *

-------3-------0-|-------3-------0-|-----------------|-----------------|------
-----------------|-----------------|-------3-------1-|-------1-------0-|------
-----2-------2---|-----0-------0---|-----2-------2---|-----2-------1---|------
---2-------2-----|---2-------2-----|---0-------0-----|---3-------2-----|------
-0-------0-------|-----------------|-----------------|-----------------|------
-----------------|-3-------3-------|-2-------2-------|-1-------0-------|------
                                                               *

-----------------|-----------------|-----------------|-----------------|------
-------3-------1-|-------3-------0-|-------3-------1-|-------3-------0-|------
-----2-------2---|-----1-------1---|-----2-------2---|-----1-------1---|------
---3-------3-----|---2-------2-----|---3-------3-----|---2-------2-----|------
-----------------|-----------------|-----------------|-----------------|------
-1-------1-------|-0-------0-------|-1-------1-------|-0-------0-------|------
        Leave you in the summertime...

                                                                     Page 2


-------0-------0-|-------3-------0-|-----------------|-----------------|------
-----------------|-----------------|-------3-------1-|-------1-------0-|------
-----2-------2---|-----0-------0---|-----2-------2---|-----2-------1---|------
---2-------2-----|---2-------2-----|---0-------0-----|---3-------2-----|------
-0-------0-------|-----------------|-----------------|-----------------|------
-----------------|-3-------3-------|-2-------2-------|-1-------0-------|------
                                                             ..comes a-

----/-/-/-/-0------------------||---||---------------------------------|------
-1--/-/-/-/-8-6--/-/-/-/-/-/-0-||---||---------------------------------|------
-2--/-/-/-/-9-7--/-/-/-/-/-/-0-||rpt||---------------------------------|------
-2--/-/-/-/-7-7--/-/-/-/-/-/-0-||3x-||---------------------------------|------
-0--/-/-/-/-0-0--/-/-/-/-/-/-0-||---||---------------------------------|------
-------------------------------||---||---------------------------------|------
 -long                                repeat above parts minus the intro -

---------------------------------------||---||-0----3----2----1----0---|------
-------------5-------8-------8-------6-||---||-1----1----1----1----0---|------
-----------4-------9-------7-------7---||rpt||-2----0----2----2----1---|------
---------2-------7-------7-------7-----||3x-||-2----2----0----3----2---|------
-------0-------0-------0-------0-------||---||-0----x----x----3----2---|------
---------------------------------------||---||------3----2----1----0---|------
 then:   (bridge)                            Chords I use for the heavy part.


 The rest of the song is combinations of the previous sections.Then end with:



-1-------------------0--------------1-------------------------0---------------
-1--------------------0------------1---------------------------0--------------
-2---------------------1----------2-----------------------------1-------------
-3----------------------2--------3-------------------------------2------------
-3-----------------------2------3---------------------------------2-----------
-1-----------------------------------------------------------------0----------
    That’s when it’s calling me.      I said that’s when it’s callin’ me...

----------|-----------|-----------|-----------|-----------|-------------------
----------|------5--5-|------4--4-|------3--3-|------3--3-|-------------------
----------|---2--2--2-|---2--2--2-|---2--2--2-|---2--2--2-|-------------------
----------|-----------|-----------|-----------|-----------|-------------------
----------|-4---------|-3---------|-2---------|-1---------|-------------------
----------|-----------|-----------|-----------|-----------|-------------------
 ba-ack  ho  --   me...

----------|---------------0-|---------------0-|-----------5--|----------------
----------|-------0---------|-------0---------|-------0---0--|----------------
----------|-----5-------5---|-----5-------5---|-----5-----5--|----------------
----------|---7-------7-----|---7-------7-----|---7-------7--|----------------
----------|-0-------0-------|-0-------0-------|-0---------0--|----------------
----------|-----------------|-----------------|--------------|----------------
                                                                fin



I can’t believe it’s already whatever time it actually is.

Other versions of Babe I'm Gonna Leave You

Babe i'm gonna leave youChords
Babe i'm gonna leave you (Ver. 2)Tabs
Babe i'm gonna leave you-(Ver. 3)Tabs

Almost there ...

Sign in to get your own page with links to favourite songs and more. You are just one click away...

Login with Facebook Login with Google