Log in

One click and you are in

Login with Facebook Login with Google

Why sign up and log in

Guitar Tabs Explorer
Avril Lavigne bass tabs for Falling down

Bass tabs

Bass Tab

Key: G

Intro:
G|--------------------------------------------------4---|
D|-------------2-2-2-4-5--------4-------------5-5-5---4-|
A|-----------------------5--5-5---5--5-2-3--3-----------| (x2)
E|-3--3-3-0--0------------------------------------------|


verse 1:
   If tears could make us decide...
G|---------------------------------------------------|
D|---------------------------------------------7h9p7-|
A|----3-3------2-5--5-5-5-5-----3-3-------5-5--------|
E|-0-------5-3---------------0-------5-3-------------|

  and try to touch the sky...
G|-------4---------7-4-0------------------5--4--------5-------------------------|
D|-2h4-5---------5-------------5p4h5----5------5----5-------------------4h5p4h5-|
A|----------3-3-----------5-5---------3-----------3------5-5-5--5-5-5-5---------|
E|------------------------------------------------------------------------------|


Chorus:
     I.......am falling down...
G|--------------------------------------------------4---|
D|-------------2-2-2-4-5--------4-------------5-5-5---5-|
A|-----------------------5--5-5---5--5-2-3--3-----------| (x2)
E|-3--3-3-0--0------------------------------------------|

  Fall right on my face...
G|---------------------------------|
D|---------------------------------|
A|-----------------3-3-3-3-3-3-3-3-|
E|-0-0-0-0-0-0-0-0-----------------|
        x2
then
G|-------------------------------------------------------------4---|
D|-2-2-2-2-2-2-2-2-4-4-4-4-4-4-------------------0-5-5-5-5-4-5---5-|
A|-----------------------------5-5-------------2-------------------|
E|---------------------------------3-3-3-3-3-3---------------------|


Verse 2: i'm stand out in the street...
G|--------------------------|
D|--------------------------|
A|----3-3------2-5--5-5-5-5-|
E|-0-------5-3--------------|

I feel it under my feet....
G|-----11h12--11----------7-4-0-------------|
D|---9-----------12-10--5-------------4h5---|
A|-7-----------------------------5-5------5-|
E|------------------------------------------|

That I can't stand my ground...
G|-------4---------7-4-0---------------------------------|
D|-2h4-5---------5---------------------------------------|
A|----------3-3--------------------------5-5-5-5-5-5-5-5-|
E|-----------------------3-3-3-3-3-3-3-3-----------------|

Have you washed my hair...
G|-----------------|---------------------|
D|-----------------|---------------------|
A|-3-3-3-3-3-3-3-3-|-5-5-5-5-5-5-5(hold)-|
E|-----------------|---------------------|
     x2


Bridge: And someday I live in a...
G|-7-7-7-7-7-7-7-7-10-10-10-10-14-14-14-14-|
D|-----------------------------------------|
A|-----------------------------------------|
E|-----------------------------------------|


house, etc.. etc.. etc...
G|-5-5-5-5-5-5-5-5-14-14-14-14-12-12-12-12-|
D|-----------------------------------------|
A|-----------------------------------------|
E|-----------------------------------------|

But you know that's not for...
G|-9-9-9-9-11-12-16-16-|-7-7-7-7-7-7-7-7-16-16-16-16-12-12-12-12-12-12-12-12-12(hold)-|
D|---------------------|--------------------------------------------------------------|
A|---------------------|--------------------------------------------------------------|
E|---------------------|--------------------------------------------------------------|
      x2

now, and now I'm falling down down down...
G-7-7-7-7-7-7-7-7-16-16-16-16-12-12-12-12-12-12-12-12-12(hold)-|
D--------------------------------------------------------------|
A--------------------------------------------------------------|
E--------------------------------------------------------------|

Almost there ...

Sign in to get your own page with links to favourite songs and more. You are just one click away...

Login with Facebook Login with Google