Log in

One click and you are in

Login with Facebook Login with Google

Why sign up and log in

Guitar Tabs Explorer
Avril Lavigne bass tabs for Everything back but you

Everything Back But You bass tab by Avril Lavigne

Avril Lavigne bass tabs for Everything back but you

Bass tabs

Bass Tab

Key: E


Tuning: Standard EADG

Intro:
G|-------------------------------------------------|
D|-------------------------------------------------|
A|---------------------------------0-0-0-0-0-0-0-0-| (x2)
E|-0-0-0-0-0-0-0-0-2-2-2-2-2-2-2-2-----------------|


Verses:
G|-----------------------------------------------------------------|
D|-----------------------------------------------------------2-----|
A|---------------------------------0-0-0-0-0-0-0-0-2-2-2-2-4---4-2-| (x2)
E|-0-0-0-0-0-0-0-0-2-2-2-2-2-2-2-2---------------------------------|


Refrain:
G|-----------------------------------------------------------------|
D|-----------------------------------------------------------------|
A|-4-4-4-4-4-4-4-4-0-0-0-0-0-0-0-0-----------------2-2-2-2-2-2-2-2-|
E|---------------------------------0-0-0-0-0-0-0-0-----------------|
then
G|-------------------------------------------------------------|
D|-------------------------------------------------------------|
A|-4-4-4-4-4-4-4-4-0-0-0-0-0-0-0-0-----------------2-2-2-2-0-0-|
E|---------------------------------0-0-0-0-0-0-0-0-------------|


Chorus:
G|-------------------------------------------------2-4-2-1-2-1-----|
D|-------------------------------------------------------------4-2-|
A|---------------------------------0-0-0-0-0-0-0-0-----------------| (x2)
E|-0-0-0-0-0-0-0-0-2-2-2-2-2-2-2-2---------------------------------|


Bridge: Same as Chorus


Outro:
G|-----------------|
D|-----------------|
A|---7---7---7---7-| (x4)
E|-0---0---0---0---|

Almost there ...

Sign in to get your own page with links to favourite songs and more. You are just one click away...

Login with Facebook Login with Google