Log in

One click and you are in

Login with Facebook Login with Google

Why sign up and log in

Guitar Tabs Explorer
Avril Lavigne bass tabs for Everybody hurts

Bass tabs with lyrics

Key: Bb


Tuning: Standard EADG
Intro: Idle


Verse 1: Idle


Refrain: Idle


Chorus 1:
Everybody hurts someday
   Gm    Eb    Bb    F
G|---------|---------|---------|---------|
D|---------|---------|---------|---------|
A|---------|-6-6-6-6-|-1-1-1-1-|---------|
E|-3-3-3-3-|---------|---------|-1-1-1-1-|

It's okay to be afraid
   Gm    Eb    Bb    F
G|---------|---------|---------|---------|
D|---------|---------|---------|---------|
A|---------|-6-6-6-6-|-1-1-1-1-|---------|
E|-3-3-3-3-|---------|---------|-1-1-1-1-|

Everybody hurts, Everybody screams
   Gm    Eb    Bb    F
G|---------|---------|---------|---------|
D|---------|---------|---------|---------|
A|---------|-6-6-6-6-|-1-1-1-1-|---------|
E|-3-3-3-3-|---------|---------|-1-1-1-1-|

Everybody feels this way
   Gm    Eb    Bb    F
G|---------|---------|---------|---------|
D|---------|---------|---------|---------|
A|---------|-6-6-6-6-|-1-1-1-1-|---------|
E|-3-3-3-3-|---------|---------|-1-1-1-1-|

la la la la la it's okay
    Gm      Eb    Bb    F
G|-------------|---------|---------|---------|
D|-------------|---------|-8-8-8-8-|---------|
A|-10-10-10-10-|-6-6-6-6-|---------|-8-8-8-8-|
E|-------------|---------|---------|---------|

la la la la la it's okay
   Gm    Eb    Bb    F
G|-------------|---------|---------|---------|
D|-------------|---------|-8-8-8-8-|---------|
A|-10-10-10-10-|-6-6-6-6-|---------|-8-8-8-8-|
E|-------------|---------|---------|---------|


Verse 2:
It feels that nothing really matters anymore
   Gm    Eb    Bb    F
G|---------|---------|---------|---------|
D|---------|---------|---------|---------|
A|---------|-6-6-6-6-|---------|-8-8-8-8-|
E|-3-3-3-3-|---------|-6-6-6-6-|---------|

When you're gone, I can't breathe
   Gm    Eb    Bb    F
G|---------|---------|---------|---------|
D|---------|---------|---------|---------|
A|---------|-6-6-6-6-|---------|-8-8-8-8-|
E|-3-3-3-3-|---------|-6-6-6-6-|---------|

And I know we never meant to make me feel this way
   Gm    Eb    Bb    F
G|---------|---------|---------|---------|
D|---------|---------|---------|---------|
A|---------|-6-6-6-6-|---------|-8-8-8-8-|
E|-3-3-3-3-|---------|-6-6-6-6-|---------|

This can't be happen on me
   Gm    Eb    Bb    F
G|---------|---------|---------|---------|
D|---------|---------|---------|---------|
A|---------|-6-6-6-6-|---------|-8-8-8-8-|
E|-3-3-3-3-|---------|-6-6-6-6-|---------|


Refrain:
Now I see, Now I see
     Eb        F
G|-----------------|-----------------|
D|-----------------|-----------------|
A|-6-6-6-6-6-6-6-6-|-8-8-8-8-8-8-8-8-|
E|-----------------|-----------------|


(Repeat Chorus 1)


Bridge:
So many questions so much on my mind
So many answers that I can't find
     Eb         F
G|-----------8-----|------------10------|
D|-------5-8---8-5-|-------7-10----10-7-|
A|-6-6-6-----------|-8-8-8--------------|
E|-----------------|--------------------|

     Eb       F
G|-----------8-----|-----------|
D|-------5-8---8-5-|-----------|
A|-6-6-6-----------|-----------|
E|-----------------|-1-1-1-1-1-|


Chorus 2:
Everybody hurts someday
Everybody hurts someday
  Gm  Eb  Bb  F
G|-12-|----|-15-|----|
D|----|-13-|----|-15-| x2
A|----|----|----|----|
E|----|----|----|----|


(Repeat Chorus 1)


Chorus 3:
Everybody hurts someday
   Gm    Eb    Bb    F
G|---------|---------|---------|---------|
D|---------|---------|---------|---------|
A|---------|-6-6-6-6-|-1-1-1-1-|---------|
E|-3-3-3-3-|---------|---------|-1-1-1-1-|

But It's okay to be afraid
   Gm    Eb    Bb    F
G|---------|---------|---------|---------|
D|---------|---------|---------|---------|
A|---------|-6-6-6-6-|-1-1-1-1-|---------|
E|-3-3-3-3-|---------|---------|-1-1-1-1-|


Chorus 4:
Everybody hurts some days
Yeah we all feel pain
   Gm    Eb    Bb    F
G|---------|---------|---------|---------|
D|---------|---------|---------|---------|
A|---------|-6-6-6-6-|-1-1-1-1-|---------|
E|-3-3-3-3-|---------|---------|-1-1-1-1-|

Everybody feels this way
But it’ll be okay
   Gm    Eb    Bb    F
G|---------|---------|---------|---------|
D|---------|---------|---------|---------|
A|---------|-6-6-6-6-|-1-1-1-1-|---------|
E|-3-3-3-3-|---------|---------|-1-1-1-1-|

Can’t somebody take me
away to a better place?
   Gm    Eb    Bb    F
G|---------|---------|---------|---------|
D|---------|---------|---------|---------|
A|---------|-6-6-6-6-|-1-1-1-1-|---------|
E|-3-3-3-3-|---------|---------|-1-1-1-1-|

Everybody feels this way, it's okay
   Gm    Eb    Bb    F
G|---------|---------|---------|---------|
D|---------|---------|---------|---------|
A|---------|-6-6-6-6-|-1-1-1-1-|---------|
E|-3-3-3-3-|---------|---------|-1-1-1-1-|


Outro:
    Gm      Eb    Bb    F
G|-------------|---------|---------|---------|
D|-------------|---------|-8-8-8-8-|---------|
A|-10-10-10-10-|-6-6-6-6-|---------|-8-8-8-8-| x4
E|-------------|---------|---------|---------|

  Gm  Eb  Bb  F
G|-12-|----|-15-|----|
D|----|-13-|----|-15-| x2
A|----|----|----|----|
E|----|----|----|----|

Almost there ...

Sign in to get your own page with links to favourite songs and more. You are just one click away...

Login with Facebook Login with Google