Log in

One click and you are in

Login with Facebook Login with Google

Why sign up and log in

Guitar Tabs Explorer
Avril Lavigne bass tabs for Contagious

Bass tabs

Bass doesn't play the intro.


Verse 1

G|--------------------------------------------------|
D|--------------------------------------------------| x4:
A|-8-8-8-8---9-9-9-9--------------------------------|
E|---------------------9-9-9-9-9-9-9-9--------------|
Pre-Chorus

G|--------------------------------------------------|
D|--------------------------------------------------|
A|-8------------------------------------------------|
E|--------------------------------------------------|

G|--------------------------------------------------|
D|--------------------------------------------------|
A|-8------9-----------------------------------------|
E|---------------9---4-4-4-4-4-4-4-4----------------|


Chorus

G|--------------------------------------------------|
D|--------------------------------------------------| x3:
A|---------4-4-4------------------------------------|
E|-2-2-2-----------4-4-4---6-6-6--------------------|

G|--------------------------------------------------|
D|--------------------------------------------------|
A|---------4-4-4---8-8-8-8-8-8-8-8-8-8-8-8----------|
E|-2-2-2--------------------------------------------|

Verse 2

G|--------------------------------------------------|
D|--------------------------------------------------| x6:
A|-8-8-8-8---9-9-9-9--------------------------------|
E|---------------------9-9-9-9-9-9-9-9--------------|


Pre-Chorus

G|--------------------------------------------------|
D|--------------------------------------------------|
A|-8------9-----------------------------------------|
E|---------------9-----4----------------------------|

G|--------------------------------------------------|
D|--------------------------------------------------|
A|-8------9-----------------------------------------|
E|---------------9-----4-4-4-4-4-4-4-4--------------|


Chorus

G|--------------------------------------------------|
D|--------------------------------------------------| x3:
A|---------4-4-4------------------------------------|
E|-2-2-2-----------4-4-4---6-6-6--------------------|

G|--------------------------------------------------|
D|--------------------------------------------------|
A|---------4-4-4---8-8-8-8-8-8-8-8-8-8-8-8----------|
E|-2-2-2--------------------------------------------|


Bridge

G|--------------------------------------------------|
D|--------------------------------------------------|
A|-9-9---9-9---9-9---8-8-8-8-8-8-8-8-8-8-8-8-8-8-8-8|
E|----9-9---9-9---9-9-------------------------------|


Chorus

G|--------------------------------------------------|
D|--------------------------------------------------| x3:
A|---------4-4-4------------------------------------|
E|-2-2-2-----------4-4-4---6-6-6--------------------|

G|--------------------------------------------------|
D|--------------------------------------------------|
A|---------4-4-4---8-8-8-8-8-8-8-8-8-8-8-8----------|
E|-2-2-2--------------------------------------------|

Last Chorus

G|--------------------------------------------------|
D|--------------------------------------------------| x3:
A|---------4-4-4------------------------------------|
E|-2-2-2-----------4-4-4---6-6-6--------------------|

G|--------------------------------------------------|
D|--------------------------------------------------|
A|---------4-4-4---8-8-8-8-8-8-8-8-8-8-8-8----------|
E|-2-2-2--------------------------------------------|

Almost there ...

Sign in to get your own page with links to favourite songs and more. You are just one click away...

Login with Facebook Login with Google