Log in

One click and you are in

Login with Facebook Login with Google

Why sign up and log in

Guitar Tabs Explorer
Avril Lavigne tabs for Complicated acoustic

Guitar tabs

Artist - Avril Lavigne
     Song - Complicated (AOL Live Acoustic)
    Album - Lets Go
Tabbed by - Jha Jha (jhajha@nm.ru)
~~~~~~~~~~~~~~~~~~~~~~~~~~~~~~~~~~
----------------------------------

Tuning - Standard (EADGBE)

Chords written according to fret position

A chord diagramDmDm       - x 0 0 2 3 1
A chord diagramA#A#       - x 1 3 3 x(1)
A chord diagramFF        - 1 3 3 2(1)x
A chord diagramC majorC        - x 3 2 0 1 x

A chord diagramD5D5       - x 5 7 7 x(5)
A chord diagramA#5A#5      - x 1 3 3 x x
A chord diagramC5C5       - x 3 5 5 x(3)
A chord diagramF5F5       - x 3 3 5 x x
A chord diagramA#A# (VI)  - 6 8 8 x x x

F5(IIX)  - 8 81010 x x  - 10 not 1 and 0
F5(add6) -10 x1010 x x  - 10 not 1 and 0
A chord diagramFsus4Fsus4    - 6 x x 5 6 x

A chord diagramCsus4Csus4    - 8 81012 x x  - 10 and 12 not 1, 2 and 0
A chord diagramC5C5 (IIX) - 81010 x x x  - 10 not 1 and 0

 /  - slide
 x  - scratch
 ~  - let ring
()  - ghost note
~~~~~~~~~~~~~~~~~~~~~~~~~~~~~~~~~~
----------------------------------

INTRO:
     A chord diagramDmDm             A chord diagramA#A#           A chord diagramFF              A chord diagramC majorC
e||--1----1--1-x--x-1--1--x-x-|---------------------------|
A chord diagramBB||--3----3--3-x--x-x--x--x-x-|--1----1--1-x--x-1--1--x-x-|
A chord diagramG+G||--2----2--2-x--x-3--3--x-x-|--2----2--2-x--x-0--0--x-x-|
A chord diagramD MajorD||--0----0--0-x--x-3--3--x-x-|--3----3--3-x--x-2--2--x-x-|
A chord diagramA augmentedA||--x----x--x-x--x-1--1------|--3----3--3-x--x-3--3--x-x-|
A chord diagramE MajorE||--x----x--x----------------|--1----1--1-x--x-----------|
                   Uh-huh,               life's
                                            like this

  A chord diagramDmDm             A chord diagramA#A#           A chord diagramFF              A chord diagramC majorC
--1----1--1-x--x-1--1--x-x-|----------------------------||
--3----3--3-x--x-x--x--x-x-|--1----1--1-x--x-1~~--1-x-x-||
--2----2--2-x--x-3--3--x-x-|--2----2--2-x--x-0~~--0-x-x-||
--0----0--0-x--x-3--3--x-x-|--3----3--3-x--x-2~~--2-x-x-||
------------x--x-1--1------|--3----3--3-x--x-3~~--3-x-x-||
---------------------------|--1----1--1-x--x------------||
                 Uh-huh, uh-huh       that's
                                     the way it is

VERSE:
    A chord diagramFF                          A chord diagramD5D5
||--------------------------|--------------------------|
||--------------x-------x-x-|--x----x---x--x-x--x--x-x-|
||--2----2---2--x-2--2--x-x-|--7----7---7--x-7--7--x-x-|
||--3----3---3--x-3--3--x-x-|--7----7---7--x-7--7--x-x-|
||--3----3---3--x-3--3--x-x-|--5----5---5--x-5--5--x-x-|
||--1----1---1----1--1------|--------------------------|
  Chill out....              Lay back....

  A chord diagramA#5A#5                        A chord diagramC5C5
--------------------------|---------------------------||
--x----x---x--x-x--x--x-x-|--x----x---x--x-x--x--x-x--||
--3----3---3--x-3--3--x-x-|--5----5---5--x-5--5--x-x--||
--3----3---3--x-3--3--x-x-|--5----5---5--x-5--5--x-x--||
--1----1---1--x-1--1--x-x-|--3----3---3--x-3--3--x-x--||
--------------------------|---------------------------||
  And if....                 let it be....


PRECHORUS:
    A chord diagramA#5A#5                        A chord diagramD5D5
||--------------------------|--------------------------|
||--x----x---x--x-x--x--x-x-|--x----x---x--x-x--x--x-x-|
||--3----3---3--x-3--3--x-x-|--7----7---7--x-7--7--x-x-|
||--3----3---3--x-3--3--x-x-|--7----7---7--x-7--7--x-x-|
||--1----1---1--x-1--1--x-x-|--5----5---5--x-5--5--x-x-|
||--------------------------|--------------------------|
  Somebody else....          Watchin' your....
-
  A chord diagramA#5A#5                        A chord diagramC5C5
--------------------------|--------------------------||
--x----x---x--x-x--x--x-x-|--------------------------||
--3----3---3--x-3--3--x-x-|--5--5--5--5-5-5----------||
--3----3---3--x-3--3--x-x-|--5--5--5--5-5-5----------||
--1----1---1--x-1--1--x-x-|--3--3--3--3-3-3----------||
--------------------------|--------------------------||
  You try....                to me...


CHORUS:
    A chord diagramDmDm          A chord diagramA#5A#5          A chord diagramF5F5          A chord diagramC5C5      A chord diagramF5F5   _
||--1-1---1---------------|-------------------------|| \
||--3-3---3---x-x-x---x---|-------------------------||  \
||--2-2---2---x-3-3---3---|--5-5---5---x-5-5---5-5--||   \   2 times
||--0-0---0---x-3-3---3---|--3-3---3---x-5-5---5-3--||   /
||--0-0---0---x-1-1---1---|--3-3---3---x-3-3---3-3--||  /
||------------------------|-------------------------||_/
    Why'd    |  things       I see the       you're
    you....  |      so...

    A chord diagramD5D5          A chord diagramA#A# (VI)      A chord diagramF5F5          A chord diagramC5C5      A chord diagramF5F5
||------------------------|-------------------------|
||------------x-----------|-------------------------|
||--7-7---7---x-----------|--5-5---5---x-5-5---5-5--|
||--7-7---7---x-8-8---8---|--3-3---3---x-5-5---5-3--|
||--5-5---5---x-8-8---8---|--3-3---3---x-3-3---3-3--|
||--------------6-6---6---|-------------------------|
    You     |crawl, and...  take,  |  you turn
     fall...|               what...|        it into

  A chord diagramG5G5                         A chord diagramC5C5
--------------------------|-------------------||
--------------------------|-------------------||
--------------------------|--5~~~~~~~~~~~~~~--||
--5--5--5--5--5--5--5--5--|--5~~~~~~~~~~~~~~--||
--5--5--5--5--5--5--5--5--|--3~~~~~~~~~~~~~~--||
--3--3--3--3--3--3--3--3--|-------------------||
  Honesty and promise....    fakin'


BRIDGE:
    F5(IIX)                  A chord diagramCsus4Csus4
||-------------------------------||
||-------------------------------||
||--10----10---10--x-10--10--12/-|| Scroll down to
||--10----10---10--x-10--10--10/-|| A chord diagramFF chord
||--8-----8----8---x-8---8---8/--||
||--8-----8----8---x-8---8---8/--||


CHORUS 2 ENDS LIKE THIS:
  A chord diagramG5G5                         A chord diagramA#A# (VI)
---------------------------|--------------------||
---------------------------|--------------------||
---------------------------|--------------------||
--5--5--5--5--5--5--5--5\--|--8~~~~~~~~~~~~~~---||
--5--5--5--5--5--5--5--5\--|--8~~~~~~~~~~~~~~---||
--3--3--3--3--3--3--3--3\--|--6~~~~~~~~~~~~~~---||
  Honesty and promise....    fakin'


BRIDGE 2:
    F5(IIX)                          F5(add6)
||--------------------------------|---------------------------------|
||--------------------------------|---------------------------------|
||--10-----10---10--x-10--10--x-x-|--10------10---10--x-10--10--x-x-|
||--10-----10---10--x-10--10--x-x-|--10------10---10--x-10--10--x-x-|
||--8------8----8---x-8---8---x-x-|--8-------8----8---x-8---8---x-x-|
||--8---8--8----8---x-8---8---x-x-|--10--10--10---10--x-10--10--x-x-|
    No no....                        No no....

  A chord diagramFsus4Fsus4                       A chord diagramC5C5 (IIX)                 A chord diagramCsus4Csus4
---------------------------|--------------------------------||
--6-----6---6----6--6------|--------------------------------||
--5-----5---5--x-5--5--x-x-|------------------x--------12/--|| Scroll down to
--x-----x---x--x-x--x--x-x-|--10-----10---10--x-10--x--10/--|| A chord diagramFF chord
--x-----x---x--x-x--x--x-x-|--10-----10---10--x-10--x--8/---||
--6--6--6---6--x-6--6--x-x-|--8---8--8----8---x-8---x--8/---||
  No no....                   No no....


VERSE 2:
    A chord diagramFF                          A chord diagramD5D5
||--1----1---1----1--1------|--5----5---5----5--5------|
||--1----1---1--x-1--1--x-x-|--x----x---x--x-x--x--x-x-|
||--2----2---2--x-2--2--x-x-|--7----7---7--x-7--7--x-x-|
||--3----3---3--x-3--3--x-x-|--7----7---7--x-7--7--x-x-|
||--3----3---3--x-3--3--x-x-|--5----5---5--x-5--5--x-x-|
||--1----1---1----1--1------|--------------------------|
  Chill out....              Lay back....

  A chord diagramA#5A#5                        A chord diagramC5C5
--1----1---1----1--1------|---------------||
--x----x---x--x-x--x--x-x-|--x~~~~~~~~----||
--3----3---3--x-3--3--x-x-|--5~~~~~~~~----||
--3----3---3--x-3--3--x-x-|--5~~~~~~~~----||
--1----1---1--x-1--1--x-x-|--3~~~~~~~~----||
--------------------------|---------------||
  And if, you....            let it be....


BRIDGE 3:
    F5(IIX)      A chord diagramC5C5 (IIX)
||------------------------||
||------------------------||
||--10-10-10--10-x--x--x--||
||--10-10-10--10-10-10-10-||
||--8--8--8---8--10-10-10-||
||--8--8--8---8--8--8--8--||

---------

INTRO

VERSE

PRECHORUS

CHORUS

BRIDGE

VERSE

PRECHORUS

CHORUS2
BRIDGE2

VERSE2

PRECHORUS

CHORUS2
BRIDGE3

CHORUS2
---------


INTRO:
A chord diagramDmDm A chord diagramA#A# A chord diagramFF  A chord diagramC majorC
A chord diagramDmDm A chord diagramA#A# A chord diagramFF  A chord diagramC majorC


VERSE:
A chord diagramFF
Chill out, whatcha yelling for?
A chord diagramD5D5
Lay back, it's all been done before
A chord diagramA#5A#5                     A chord diagramC5C5
And if, you could only let it be, you will see
A chord diagramFF
I like, you the way you are
A chord diagramD5D5
When we're, driving in your car
A chord diagramA#5A#5                       A chord diagramC5C5
And you're, talking to me one on one, but you become


PRECHORUS:
A chord diagramA#5A#5
Somebody else, round everyone else
A chord diagramD5D5
Watchin' your back, like you can't relax
A chord diagramA#5A#5
You try to be cool, you look like a fool to
A chord diagramC5C5
Me, tell me


CHORUS:
A chord diagramDmDm                            A chord diagramA#5A#5              A chord diagramF5F5          A chord diagramC5C5      A chord diagramF5F5
Why'd you have to go and make things so complicated?
A chord diagramC5C5                A chord diagramF5F5
I see the way you're
A chord diagramDmDm                            A chord diagramA#5A#5              A chord diagramF5F5          A chord diagramC5C5      A chord diagramF5F5
Actin' like you're somebody else, gets me frustrated
A chord diagramC5C5                   A chord diagramF5F5
And life's like this you
A chord diagramD5D5                    A chord diagramA#A# (VI)
You fall, and you crawl, and you break
         A chord diagramF5F5                        A chord diagramC5C5       A chord diagramF5F5
And you take, what you get, and you turn it into
A chord diagramG5G5                                                   A chord diagramC5C5
Honesty and promise me I'm never going to find you fakin'
No no no        F5(IIX)                  A chord diagramCsus4Csus4


VERSE:
A chord diagramFF
You come, over unannounced
A chord diagramD5D5
Dressed up, like you're something else
A chord diagramA#5A#5                           A chord diagramC5C5
Where you, are and where it's at you see, you're making me
A chord diagramFF
Laugh out, when you strike a pose
A chord diagramD5D5
Take off, all you're preppy clothes
A chord diagramA#5A#5                          A chord diagramC5C5
You know, you're not fooling anyone, when you become


PRECHORUS

CHORUS 2

BRIDGE 2:
F5(IIX)
No no (no no)
F5(add6)
No no (no no)
A chord diagramFsus4Fsus4
No No (no no)
A chord diagramC5C5 (IIX)                 A chord diagramCsus4Csus4
No...


VERSE 2:
A chord diagramFF
Chill out, whatcha yelling for?
A chord diagramD5D5
Lay back, it's all been done before
A chord diagramA#5A#5                     A chord diagramC5C5
And if, you could only let it be, you will see


PRECHORUS

CHORUS 2

BRIDGE 3

CHORUS 2

~~~~~~~~~~~~~~~~~~~~~~~~~~~~~~~~~~
----------------------------------

Other versions of Complicated Acoustic

ComplicatedChords
Complicated (Ver. 3)Chords
Complicated (Ver. 4)Chords
Complicated acousticChords
Complicated acoustic (Ver. 2)Chords
ComplicatedTabs
Complicated (Ver. 2)Tabs
Complicated liveTabs

Almost there ...

Sign in to get your own page with links to favourite songs and more. You are just one click away...

Login with Facebook Login with Google