Log in

One click and you are in

Login with Facebook Login with Google

Why sign up and log in

Guitar Tabs Explorer
Avril Lavigne bass tabs for Black star

Bass tabs

Key: C


Tuning: Standard EADG

Intro:
  C  G Am  F
G|---|---|---|---|
D|---|---|---|---|
A|-3-|---|-0-|---|
E|---|-3-|---|-1-|


Verse:
Black star, black star
  C G Am  F
G|---|---|---|---|
D|---|---|---|---|
A|-3-|---|-0-|---|
E|---|-3-|---|-1-|

shining star, shining star
  C G Am  F
G|---|---|---|---|
D|---|---|---|---|
A|-3-|---|-0-|---|
E|---|-3-|---|-1-|

rock star, rock star
     C         G
G|-----------------|-------------------|
D|-----------------|-------------------|
A|-3-3-3-3-3-3-3-3-|-------------------|
E|-----------------|-3-3-3-3-3-3-3-3-3-|

     Am         F
G|-----------------|-------------------|
D|-----------------|-------------------|
A|-0-0-0-0-0-0-0-0-|-------------------|
E|-----------------|-1-1-1-1-1-1-1-1-1-|

black star, black star, x2
     C         G
G|-----------------|-------------------|
D|-----------------|-------------------|
A|-3-3-3-3-3-3-3-3-|-------------------|
E|-----------------|-3-3-3-3-3-3-3-3-3-|

     Am         F
G|-----------------|-------------------|
D|-----------------|-------------------|
A|-0-0-0-0-0-0-0-0-|-------------------|
E|-----------------|-1-1-1-1-1-1-1-1-1-|


Outro: x2
     C         G
G|-----------------|-------------------|
D|-----------------|-------------------|
A|-3-3-3-3-3-3-3-3-|-------------------|
E|-----------------|-3-3-3-3-3-3-3-3-3-|

     Am         F
G|-----------------|-------------------|
D|-----------------|-------------------|
A|-0-0-0-0-0-0-0-0-|-------------------|
E|-----------------|-1-1-1-1-1-1-1-1-1-|

  C  G Am  F
G|---|---|---|---|
D|---|---|---|---|
A|-3-|---|-0-|---| x2
E|---|-3-|---|-1-|

  C
G|---
D|---
A|-3-
E|---

Almost there ...

Sign in to get your own page with links to favourite songs and more. You are just one click away...

Login with Facebook Login with Google