Log in

One click and you are in

Login with Facebook Login with Google

Why sign up and log in

Guitar Tabs Explorer
Avril Lavigne guitar tabs for Best dman thing

Guitar tabs

Key: A chord diagramD MajorD


Tuning: Drop A chord diagramD MajorD

Intro: Bass lines till Verses


Refrains: Where are my hopes...

Guitar 1: Clean here
e|---------------------------|
B|---------------------------|
G|-4-------7---6---4---------|
D|-4---5---7---7---4---5---7-|
A|-2---5---5---4---2---5---7-|
D|-----5---0-----------5---7-|

Piano:
e|-14--12---------------12-|----|
B|---------14--12----15----|-15-|
G|-------------------------|----|
D|-------------------------|----|
A|-------------------------|----|
D|-------------------------|----|
            x3


Chorus: That you're not not not gonna get any better...

Guitar 1: Distorted both guitars
e|---------------------------------------|
B|---------------------------------------|
G|---------------------------------------|
D|-0-0-0-0---5-5-5-5---9-9-9-9---5-5-5-5-|
A|-0-0-0-0---5-5-5-5---9-9-9-9---5-5-5-5-|
D|-0-0-0-0---5-5-5-5---9-9-9-9---5-5-5-5-|
then
e|---------------------------------------|
B|---------------------------------------|
G|---------------------------------------|
D|-0-0-0-0---5-5-5-5---9-9-9-9---5-5---7-|
A|-0-0-0-0---5-5-5-5---9-9-9-9---5-5---7-|
D|-0-0-0-0---5-5-5-5---9-9-9-9---5-5---7-|

Guitar 2:
e|-10-10-------12-12-------14-14-------14-15-17----|
B|-------10-10-------10-10-------15-15----------15-|
G|-------------------------------------------------|
D|-------------------------------------------------| (Repeat many times)
A|-------------------------------------------------|
D|-------------------------------------------------|

Post Chorus: Alright! Alright!

Both Guitars:
e|--------------|
B|--------------|
G|--------------|
D|-12---9-11-12-|
A|-12---9-11-12-|
D|-12---9-11-12-|


Bridge: Give me an A!!!, just bass only and Guitar 2

Guitar 2:
e|---------|
B|---------|
G|---------|
D|-2-4-6-7-|
A|-2-4-6-7-|
D|-2-4-6-7-|

(Repeat Refrains and Chorus)


Outro:
Both Guitars:
e|--------------|
B|--------------|
G|--------------|
D|-12---9-11-12-|
A|-12---9-11-12-|
D|-12---9-11-12-|
then
e|--------------------|
B|--------------------|
G|--------------------|
D|-12-----------------|
A|-12(all throughout)-
D|-12-----------------
then
e|---------------|
B|---------------|
G|---------------|
D|-5-5-5--7- <---|I'm the best damn thing that your eyes have ever seen!!!
A|-5-5-5--7------|
D|-5-5-5--7------|

Almost there ...

Sign in to get your own page with links to favourite songs and more. You are just one click away...

Login with Facebook Login with Google