Log in

One click and you are in

Login with Facebook Login with Google

Why sign up and log in

Guitar Tabs Explorer
Avril Lavigne bass tabs for Best damn thing

Bass tabs

Key: D

Bass Tab


Tuning: Drop D

Intro and Verses:
G|---------|
D|---------|
A|-0-2-4-5-|
D|---------|


Refrains:
G|---------------------------|
D|---------------------------|
A|-2-------5---4---2---------|
D|-----5---------------5---7-|


Chorus: That you're not not not gonna get any better!!!
G|---------------------------------------|
D|---------------------------------------|
A|---------------------------------------|
D|-0-0-0-0---5-5-5-5---9-9-9-9---5-5-5-5-|
then
G|--------------------------------------|
D|--------------------------------------|
A|--------------------------------------|
D|-0-0-0-0---5-5-5-5---9-9-9-9---5-5--7-|


Bridge: Give me an A!!!
G|---------------1-2-|
D|-----------2-4-----|
A|-------------------|
D|-2-4-6-7-----------|


(Repeat Refrains and Chorus)


Outro: A little tricky here, but this is easier if you mastered it correctly
G|-----------7---5-----7p5h7--14----|------------------------------------------|---|
D|---------7---7---5-7-----------12-|-12-12-12\10-12-12-12---------------------|---|
A|-0-2-4-5--------------------------|------------------------5---3-5---5-5-5-5-|-5-|
D|----------------------------------|----------------------0---0-----0---------|---|
        x4

Other versions of Best Damn Thing

Best damn thing albumBass tabs

Almost there ...

Sign in to get your own page with links to favourite songs and more. You are just one click away...

Login with Facebook Login with Google