Log in

One click and you are in

Login with Facebook Login with Google

Why sign up and log in

Guitar Tabs Explorer
Avril Lavigne bass tabs for Alone

Bass tabs

Key: C


Tuning: Standard EADG

Intro:
G|----------|
D|----------|
A|-0-0--0-0-|
E|----------|


Verses:
G|-----------------------------------|
D|-----------------------------------|
A|-0-0-0-0-0-0-0-0-------------------| x2
E|------------------1-1-1-1--3-3-3-3-|


Chorus:
G|------------------------------------|
D|------------------------------------|
A|----------0-0-0-0-----------3-3-3-3-| x4
E|-0-0-0-0-----------1-1-1-1----------|


Interlude:
G|----------|
D|----------|
A|-0-0--0-0-|
E|----------|


Bridge:
G|---------------|---------------------------|
D|---------------|---------------------------|
A|------0-0------|------0-0------------------|
E|-0-0-------1-1-|-0-0-------1-1-1-1-1-1-1-1-|
    x3

Almost there ...

Sign in to get your own page with links to favourite songs and more. You are just one click away...

Login with Facebook Login with Google