Log in

One click and you are in

Login with Facebook Login with Google

Why sign up and log in

Guitar Tabs Explorer
Avril Lavigne bass tabs for All you will never know

All You Will Never Know bass tab by Avril Lavigne

Avril Lavigne bass tabs for All you will never know

Bass tabs

/=slide up
\=slide down
h=hammer on


intro
e|---------------------||----------------------|
a|-2-3-4-------0-2-3-4-||0-2-3-4-------0-2-3-4-|
d|---------------------||----------------------|
g|---------------------||----------------------|
verse 1
e|-----3-3------3||-----3-3---------------|
a|-0h1--------3--||-1-1---------------6/11|
d|---------------||-----------------------|
g|---------------||-----------------------|


chorus- it just goes along with the lead power chords
 so just figure it out but u cant
even hear it unless u realy turn it up
 like as loud as ur ipod gets so idk

e|-----------------|
a|-4-4-3-3-4-4-5-5-|
d|-----------------|
g|-----------------|


intro
e|--------------------------|
a|-0-2-3-4-----0-2-3-4---2h3|
d|--------------------------|
g|--------------------------|

verse 2
e|-----3-3------3||-----3-3-----------------|
a|-0h1--------3--||-1-1---------------6/11\6|
d|---------------||-------------------------|
g|---------------||-------------------------|


intro
e|------------------------------------------------------|
a|-0-2-3-4----0-2-3-4----0-2-3-4----2-2-3-3-----2-2-2-2-|
d|------------------------------------------------------|
g|------------------------------------------------------|


chorus
e|-----------------|
a|-4-4-3-3-4-4-5-5-|
d|-----------------|
g|-----------------|


verse 3
e|--------------------------------|
a|-4----0-2-3-4---6-5-4--1--2-3-4-|
d|--------------------------------|
g|--------------------------------|

e|------------------------------------------------|
a|-0-2-3---6-5-4--1--2-3--0-2-3---6-5-4--1--2-3-4-|
d|------------------------------------------------|
g|------------------------------------------------|

i hope u liked it;)write me if it needs work plz

Almost there ...

Sign in to get your own page with links to favourite songs and more. You are just one click away...

Login with Facebook Login with Google