Log in

One click and you are in

Login with Facebook Login with Google

Why sign up and log in

Guitar Tabs Explorer
Avril Lavigne bass tabs for Alice underground

Bass tabs

Avril Lavigne - Alice Underground


Tuning: Standard EADG:
00:29:

G|---------------|---------------|
D|---------------|---------------|
A|---------------|---------------| x2
E|3-3-3-3-3-3-3-3|3-3-3-3-3-3-3-3|

G|---------------|---------------|
D|---------------|---------------|
A|---------------|---------------|
E|1-1-1-1-1-1-1-1|1-1-1-1-1-1-1-1|

G|---------------|---------------|
D|---------------|---------------|
A|---------------|---------------| x3
E|3-3-3-3-3-3-3-3|3-3-3-3-3-3-3-3|

G|---------------|
D|---------------|
A|---------------|
E|1-1-1-1-1-1-1-1|

00:55:

Short break

00:57:

G|---------------|---------------|
D|---------------|---------------|
A|---------------|---------------| x2
E|3-3-3-3-3-3-3-3|3-3-3-3-3-3-3-3|

01:05:

G|---------------|---------------|---------------|---------------|
D|---------------|---------------|---------------|---------------|
A|3-3-3-3-3-3-3-3|---------------|---------------|---------------| x2
E|---------------|5-5-5-5-5-5-5-5|3-3-3-3-3-3-3-3|1-1-1-1-1-1-1-1|

G|---------------|---------------|---------------|---------------|
D|---------------|---------------|---------------|---------------|
A|3-3-3-3-3-3-3-3|---------------|---------------|---------------|
E|---------------|5-5-5-5-5-5-5-5|3-3-3-3-3-3-3-3|3-3-3-3-3-3-3-3|

G|---------------|---------------|---------------|---------------|---------------|
D|---------------|---------------|---------------|---------------|---------------|
A|3-3-3-3-3-3-3-3|---------------|---------------|5-5-5-5-5-5-5-5|5-5-5-5-5-5-5-5|
E|---------------|5-5-5-5-5-5-5-5|3-3-3-3-3-3-3-3|---------------|---------------|

01:40:

Break

02:14:

G|---------------|---------------|---------------|---------------|
D|---------------|---------------|---------------|---------------|
A|3-3-3-3-3-3-3-3|---------------|---------------|---------------| x2
E|---------------|5-5-5-5-5-5-5-5|3-3-3-3-3-3-3-3|1-1-1-1-1-1-1-1|

G|---------------|---------------|---------------|---------------|
D|---------------|---------------|---------------|---------------|
A|3-3-3-3-3-3-3-3|---------------|---------------|---------------| x2
E|---------------|5-5-5-5-5-5-5-5|3-3-3-3-3-3-3-3|3-3-3-3-3-3-3-3|

02:46:

G|---------------|---------------|---------------|---------------|
D|---------------|---------------|---------------|---------------|
A|3-3-3-3-3-3-3-3|---------------|---------------|---------------| x2
E|---------------|5-5-5-5-5-5-5-5|3-3-3-3-3-3-3-3|1-1-1-1-1-1-1-1|

G|---------------|---------------|---------------|---------------|
D|---------------|---------------|---------------|---------------|
A|3-3-3-3-3-3-3-3|---------------|---------------|---------------|
E|---------------|5-5-5-5-5-5-5-5|3-3-3-3-3-3-3-3|3-3-3-3-3-3-3-3|

G|---------------|---------------|---------------|---------------|
D|---------------|---------------|---------------|---------------|
A|3-3-3-3-3-3-3-3|---------------|---------------|5~-------------|
E|---------------|5-5-5-5-5-5-5-5|3-3-3-3-3-3-3-3|---------------|


| / slide up
| \ slide down
| h hammer-on
| p pull-off
| ~ vibrato
| + harmonic
| x Mute note

Almost there ...

Sign in to get your own page with links to favourite songs and more. You are just one click away...

Login with Facebook Login with Google