Log in

One click and you are in

Login with Facebook Login with Google

Why sign up and log in

Guitar Tabs Explorer
Avril Lavigne tabs for Adia

Solo tabs

Solo with Capo on 3rd fret

e-1-6-8-9-8-6-1-4------1-2-4--4-2-1-------1--4-----3----------------|
B--------------------2--------------1-2-4----------3----------------|
G--------------------------------------------------4----------------|
D--------------------------------------------------3----------------|
A--------------------------------------------------5----------------|
E--------------------------------------------------3----------------|


Solo withOUT Capo on 3rd fret

E-4-9-11-12-11-9-4-7------4-5-7--7-5-4-------4--7--6----------------|
B-----------------------5--------------4-5-7--7----6----------------|
G--------------------------------------------------7----------------|
D--------------------------------------------------6----------------|
A--------------------------------------------------8----------------|

Other versions of Adia

AdiaChords

Almost there ...

Sign in to get your own page with links to favourite songs and more. You are just one click away...

Login with Facebook Login with Google