Log in

One click and you are in

Login with Facebook Login with Google

Why sign up and log in

Guitar Tabs Explorer
Lauv bass tabs for Never not

Bass tabs

Tuning: Standard (E A D G)

~134 BPM


Verse 1: (no bass Verse 1, as shown below:)

G|--|----------------|----------------|----------------|----------------|
D|--|----------------|----------------|----------------|----------------|
A|--|----------------|----------------|----------------|----------------|
E|--|----------------|----------------|----------------|----------------|
  +  1   2   3   4

G|----------------|----------------|----------------|----------------|
D|----------------|----------------|----------------|----------------|
A|----------------|----------------|----------------|----------------|
E|----------------|----------------|----------------|----------------|

Pre-Chorus:

G|----------------|----------------|----------------|----------------|
D|3---------------|2---------------|0---------------|----------------|
A|----------------|----------------|----------------|3---------------|
E|----------------|----------------|----------------|----------------|

G|----------------|----------------|----------------|----------------|
D|----------------|----------------|----------------|----------------|
A|1---------------|0---------------|1---------------|r---------------|
E|----------------|----------------|----------------|---------------8| this note is very very fast. Play it
                                                                       about the same time as the next note.


Chorus:

G|----------------|----------------|----------------|----------------|
D|----------------|----------------|----------------|----------------|
A|8-----------8---|7-----------7---|5---------------|----------------|
E|----------------|----------------|----------------|8-----------8---|

G|----------------|----------------|----------------|----------------|
D|----------------|----------------|----------------|----------------|
A|----------------|----------------|----------------|----------------|
E|6-----------6---|5---------------|6---------------|8-----8-----8--8|

G|----------------|----------------|----------------|----------------|
D|----------------|----------------|----------------|----------------|
A|8-----------8---|7-----------7---|5---------------|----------------|
E|----------------|----------------|----------------|8-----------8---|

G|----------------|----------------|----------------|----------------|----------------|
D|----------------|----------------|----------------|----------------|----------------|
A|----------------|----------------|----------------|----------------|----------------|
E|6---------------|5---------------|6---------------|8---------------|r---------------|


Verse 2:

G|----------------|----------------|----------------|----------------|
D|3---------------|2---------------|0---------------|----------------|
A|----------------|----------------|----------------|3---------------|
E|----------------|----------------|----------------|----------------|

G|----------------|----------------|----------------|----------------|
D|----------------|----------------|----------------|----------------|
A|1---------------|0---------------|1---------------|3--------------3|
E|----------------|----------------|----------------|----------------|


Pre-Chorus:

G|----------------|----------------|----------------|----------------|
D|3-----------3---|2---------------|0-----------0---|----------------|
A|----------------|----------------|----------------|3-----------3---|
E|----------------|----------------|----------------|----------------|

G|----------------|----------------|----------------|----------------|
D|----------------|----------------|----------------|----------------|
A|1-----------1---|0---------------|1---------------|r---------------|
E|----------------|----------------|----------------|----------------|


Chorus:

G|----------------|----------------|----------------|----------------|
D|----------------|----------------|----------------|----------------|
A|----------------|----------------|----------------|----------------|
E|----------------|----------------|----------------|----------------|

G|----------------|----------------|----------------|----------------|
D|----------------|----------------|----------------|----------------|
A|----------------|----------------|----------------|----------------|
E|----------------|----------------|----------------|----------------|

G|----------------|------------------|----------------|----------------|
D|3-------r---3---|2-------(2)---2---|0-------r---0---|----------------|
A|----------------|------------------|----------------|3-------r-------|
E|----------------|------------------|----------------|----------------|
  1   2   3   4

G|------------------|----------------|----------------|----------------|
D|------------------|----------------|----------------|----------------|
A|1-------(1)---1---|0-------x---0---|1---------------|r---------------|
E|------------------|----------------|----------------|----------------|


Bridge: (It's hard to hear the bass here, but it seems simple, so I would follow the basic pattern:)

G|----------------|----------------|----------------|----------------|
D|----------------|----------------|----------------|----------------|
A|8---------------|7---------------|5---------------|----------------|
E|----------------|----------------|----------------|8-----------8---|

G|----------------|----------------|----------------|----------------|
D|----------------|----------------|----------------|----------------|
A|----------------|----------------|----------------|----------------|
E|6---------------|5---------------|6---------------|8---------------|

G|----------------|----------------|----------------|----------------|
D|----------------|----------------|----------------|----------------|
A|8---------------|7---------------|5---------------|----------------|
E|----------------|----------------|----------------|8---------------|

G|----------------|----------------|----------------|----------------|
D|----------------|----------------|----------------|----------------|
A|----------------|----------------|----------------|----------------|
E|6---------------|5---------------|6---------------|8-----8-----8---|

G|----------------|----------------|
D|----------------|----------------|
A|----------------|----------------|
E|----------------|----------------|


Outro:

(No bass)

************************************

| x   Dead note
| (n) Ghost note
| r   Rest

************************************

Almost there ...

Sign in to get your own page with links to favourite songs and more. You are just one click away...

Login with Facebook Login with Google