Log in

One click and you are in

Login with Facebook Login with Google

Why sign up and log in

Guitar Tabs Explorer
Lauv guitar tabs for Mean it

Guitar tabs

Tuning: Standard (E A D G B E)


Intro:

e|--2--------|--2--------|--2-------|
B|-----2*----|-----2*----|-----2*---|
G|-----------|-----------|----------|
D|-----------|-----------|----------|
A|-----------|-----------|----------|
E|-----------|-----------|----------|
                     ...Small talk, no conversation


Ignore this it's here cuz i needed a certain ammount of notes to submit this:

e|---------------------------------------------------------------------------|
B|----3-------------3----------------------3---------------------------------|
G|-----------------------------4---------------------------------------------|
D|------4--------------------------------------------------------------------|
A|-----------------3-------------------------3-------------------------------|
E|---------------------------------------------------------------------------|

*************

| * let ring

*************

Other versions of Mean It

Mean itChords

↓ Add and view comments below ↓

What do you think about this song and these tabs?

Add your comments, questions, rant or a thumbs up below.

Almost there ...

Sign in to get your own page with links to favourite songs and more. You are just one click away...

Login with Facebook Login with Google