Log in

One click and you are in

Login with Facebook Login with Google

Why sign up and log in

Guitar Tabs Explorer
Last Dinosaurs tabs for Andy

Guitar tabs with lyrics

The same chords are played by the rhythm guitar (sean caskey) pretty much
throughout the whole song
Listen the recording for accurate strum pattern as the tab does it no justice

Intro/Chorus

|----------------------------------------------------------------|
|-7--7--7--7-7-7-7---7-7-7--7-7-7-7-7---10--10--10--10-10-10-10--|
|-6--6--6--6-6-6-6---7-7-7--7-7-7-7-7---9---9---12--12-12-12-12--|
|-7--7--7--7-7-7-7---9-9-9--9-9-9-9-9---11--11--11--11-11-11-11--|
|----------------------------------------------------------------|
|----------------------------------------------------------------|
|----------------------------------------------------------------|
|-10--10--10-10-10-10--------------------------------------------|
|-11--11--11-11-11-11--------------------------------------------|
|-12--12--12-12-12-12--------------------------------------------|
|----------------------------------------------------------------|
|----------------------------------------------------------------|


Verse/Bridge: single strum of chords (let ring)

Lyircs:

Everyday I try to work out how to
In anyway clear my thoughts and doubts
Hey there, Andy, what's this all about?
He says, aim and shoot it, that's all it is to it

My sea and world was in my hands
You'll find sometimes things don't go to plan
We found music somewhere in our heads
Something went WRONG?
This is where we belong

Meet me on the surface of Jupiter
We don't need no reason, just make it up
Bring your pen and paper and some time to think
Don't you leave a page 'til your out of ink

You don't really have to change, change for me
Nothing ever is the same, without me
You don't really have to change, change for me

This is where we belong [x7]

You don't really have to change, change for me
Nothing ever is the same, without me

ⓘ Guitar tab for 'Andy' by Last Dinosaurs, a pop-rock band formed in 2008 from Brisbane, Australia

Almost there ...

Sign in to get your own page with links to favourite songs and more. You are just one click away...

Login with Facebook Login with Google