Log in

One click and you are in

Login with Facebook Login with Google

Why sign up and log in

Guitar Tabs Explorer
Mads Langer tabs for Judas kiss

Guitar tabs with lyrics

det tog godt nok lang tid, men nu har jeg endelig fået lyttet den af :)

Mads Langer
Judas Kiss
Mads Langer

capo 7.
tuning:
d
A chord diagramA augmentedA
A chord diagramG+G
d
A chord diagramG+G
d


riff 1
d----0---0---0---0---0---0---0---0--|
A---1---1---1---1---0---0---5---0---|
G--3---3---3---3---2---2---5---2----|
D-0---0---0---0---0---0---0---0-----|
G-----------------------------------|
D-----------------------------------|


riff 2
d-----------------------------------|
A----0---0---0---0---0---0---0---0--|
G---0---0---0---0---0---0---0---0---|
D--5---5---2---2---5---5---2---2----|
G-0---0---0---0---0---0---0---0-----|
D-----------------------------------|

riff 3
d--------0-------0--|
A----0-------0------|
G---0---0---0---0---|
D--4---4---4---4----|
G-------------------|
D-0---0---0---0-----|

            hvis der i formen står, at riff 6 kommer efter riff 4, skal man ikke
spille '1. gang slutningen'

riff 4                                            |      1. gang    |   2. gang: spil 6
d--------------------0---0---0---0----------------|---0---0---0---0--|
A----0---0---0---0---0---0---0---0---0---0---0---0 ---0---0---0---0--|
G---0---0---0---0---0---0---0---0---0---0---0---0- --0---0---0---0---|
D--4---4---4---4---0---0---0---0---2---2---2---2-- -0---0---0---0----|
G-5---5---5---5---4---4---4---4---3---3---3---3--- 2---2---2---2-----|
D------------------------------------------------- ------------------|


riff 5
d-----0---0---0---0--|
A----1---1---1---1---|
G---3---3---3---3----|
D--0---0---0---0-----|
G--------------------|
D--------------------|


riff 6
d-------------0----0--|
A----0---0----0----0--|
G---0---0----0----0---|
D--4---4----2----2----|
G-2---2----0----0-----|
D(0)-(0)--------------|


riff 7
d----0---0---0---0---0---0---0---0--------0-------0-------0-------0--|
A---3---3---3---3---3---3---3---3-----0-------0-------0-------0------|
G--0---0---0---0---0---0---0---0-----0---0---0---0---0---0---0---0---|
D-----------------------------------4---4---4---4---4---4---4---4----|
G-----------------0---0---0---0----2---2---2---2---2---2---2---2-----|
D-3---3---3---3------------------------------------------------------|


riff 8              S  S
d----0---0---0-0-0--0--0--|
A---3---3----3-3-3--3--0--|
G--0---0-----0-0-0--2--2--|
D-------------------0--0--|
G-------------------0--2--|
D-3---3----3--------------|


riff 9
  S  S
d-0--0----------------------0---0---0---0--|
A-0--0-----0---0---0---0----0---0---0---0--|
G-0--0----0---0---0---0----0---0---0---0---|
D-4--0---2---2---2---2----0---0---0---0----|
G-5--4--3---3---3---3----2---2---2---2-----|
D------------------------------------------|

S= strum -   n n o o n o  ( d d u u d u )


riff 10
d------0--|
A-----0---|
G----2----|
D---0-----|
G--2------|
D-0-------|

form

intro: riff 1x2

verse 1: riff 1x2

pre-chorus: riff 2x1, riff 3x2

verse 2: riff 1x2

pre-chorus: riff 2x1, riff 3x2

chorus: riff 4x2, riff 6x1, riff 3x2

verse 3: riff 1x2

pre-chorus: riff 2x1. riff 3x2

chorus: riff 4x2, riff 6x1

bridge: riff 7x2, riff 8x1

chorus: riff 9x1, riff 4x1, riff 10


tekst:


verse 1:
Is this a Judas kiss?
A chord diagramA augmentedA gentle way of killing


pre-chorus:
Killing everything we had - nothing's left but the aftermath of you


verse 2:
Is this a hidden war?
Between night and nightmares?


pre-chorus:
Erase my name from your memory - embrace the death silently tonight


chorus:
It just wasn't blue as blue was meant to be
It just wasn't good as good was meant to be


verse 3:
There's lipstick in your eyes
You’ve got tears on you lips


pre-chorus:
Broken flowers in your hair - golden words are in the air – its’ oh so hollow


chorus:
It just wasn't blue as blue was meant to be
It just wasn't good as good was meant to be


bridge:
Over is over - closer is closer
Silence is screaming - hello


chorus:
It just wasn't blue as blue was meant to be

Almost there ...

Sign in to get your own page with links to favourite songs and more. You are just one click away...

Login with Facebook Login with Google