Log in

One click and you are in

Login with Facebook Login with Google

Why sign up and log in

Guitar Tabs Explorer
Mark Lanegan tabs for Dead on you

Guitar tabs with lyrics

Intro
|----------------------------------------|
|----------------------------------------|
|-------------2---0----------------------|
|-----0-2---0-------2---0----------------|
|-0h2------------------------------------|
|--------------------------2^--2^-2^-----|

A chord diagramE MajorE
You were a ragged
              A chord diagramD MajorD
Turquoise and twilight coat
A chord diagramA augmentedA
I got my head hung down for you
verse fill
|-----------------------|
|-----------------------|
|-0h2p0---0h2p0---------|
|-------2-------2p0-----|
|--------------------2--|
|-----------------------|

A chord diagramE MajorE
Some day you're gonna need it
                      A chord diagramD MajorD
But it's worn or the, cloth gets torn
A chord diagramA augmentedA                           A chord diagramE MajorE
And there's only one way to go
          A chord diagramD MajorD     A chord diagramA augmentedA
It's gone dead, dead
                  A chord diagramE MajorE
It's gone dead on you

|----------------------------------------|
|----------------------------------------|
|-------------2---0----------------------|
|-----0-2---0-------2---0----------------|
|-0h2------------------------------------|
|--------------------------2^--2^-2^-----|

A chord diagramE MajorE
Take off your ragged
              A chord diagramD MajorD
Turquoise and twilight coat
A chord diagramA augmentedA
I got my head hung down for you
A chord diagramE MajorE
Someday you're gonna need it
                      A chord diagramD MajorD
But it's worn or the, cloth gets torn
A chord diagramA augmentedA                               A chord diagramE MajorE
And then there's only on way to go
           A chord diagramD MajorD     A chord diagramA augmentedA
It's goin' dead, dead
           A chord diagramD MajorD     A chord diagramA augmentedA
It's going dead, dead
                   A chord diagramE MajorE
It's goin' dead on you

|----------------------------------------|
|----------------------------------------|
|-------------2---0----------------------|
|-----0-2---0-------2---0----------------|
|-0h2------------------------------------|
|--------------------------2^--2^-2^-----|

Almost there ...

Sign in to get your own page with links to favourite songs and more. You are just one click away...

Login with Facebook Login with Google