Log in

One click and you are in

Login with Facebook Login with Google

Why sign up and log in

Guitar Tabs Explorer
Miranda Lambert bass tabs for Kerosene (Ver. 2)

Bass tabs

Key: D

🎸 Verse 1:

No bass

🎸 Chorus:
After "Love's Given Up On Me"
G|---------------|--------------|
D|---------------|--------------|
A|----5--3-0-2---|----5--3-0-2--|
E|-------------3-|--------------|
B|-3-------------|-3------------|


🎸 Verse 2:

G|-------------|-------------|---------------|--------------|
D|-------------|-------------|---------------|--------------|
A|-5--5--5--5--|-3--3--------|----5--3-0-2---|----5--3-0-2--| x2
E|-------------|-------3--3--|-------------3-|--------------|
B|-------------|-------------|-3-------------|-3------------|


🎸 Chorus:

G|---------------|-------------|---------------|--------------|
D|---------------|-------------|---------------|--------------|
A|-0--0--0-----0-|-3--3--------|----5--3-0-2---|----5--3-0-2--| x2
E|---------2-3---|-------3--3--|-------------3-|--------------|
B|---------------|-------------|-3-------------|-3------------|


🎸 Solo:

G|---------------|-------------|---------------|---------------|
D|---------------|-------------|---------------|---------------|
A|-0--0------5-3-|-------------|----5--3-0-2---|----5--3-0-2---| x2
E|-------1-3-----|-1--1--1--1--|-------------3-|-------------3-|
B|---------------|-------------|-3-------------|-3-------------|

G|---------------|---------------|
D|---------------|---------------|
A|----5--3-0-2---|----5--3-0-2---|
E|-------------3-|-------------3-|
B|-3-------------|-3-------------|

🎸 Verse 3:

G|-------------|-------------|---------------|--------------|
D|-------------|-------------|---------------|--------------|
A|-5--5--5--5--|-3--3--------|----5--3-0-2---|----5--3-0-2--| x2
E|-------------|-------3--3--|-------------3-|--------------|
B|-------------|-------------|-3-------------|-3------------|


🎸 Chorus:

G|---------------|-------------|---------------|--------------|
D|---------------|-------------|---------------|--------------|
A|-0--0--0-----0-|-3--3--------|----5--3-0-2---|----5--3-0-2--| x2
E|---------2-3---|-------3--3--|-------------3-|--------------|
B|---------------|-------------|-3-------------|-3------------|


🎸 Verse 4:

G|----------------|---------------|------------------|------------------|
D|----------------|---------------|------------------|------------------|
A|-5-/-12--12--12\|\3-/-10--10--8\|\5-/-12-/-15-\-14\|\5-/-12-/-15-\-14-|
E|----------------|---------------|------------------|------------------|
B|----------------|---------------|------------------|------------------|

G|----------------|---------------|---------------|--------------|
D|----------------|---------------|---------------|--------------|
A|-5-/-12--12--12\|\3-/-10--10--8\|----5--3-0-2---|----5--3-0-2--|
E|----------------|---------------|-------------3-|--------------|
B|----------------|---------------|-3-------------|-3------------|


🎸 Chorus:

G|---------------|-------------|---------------|--------------|
D|---------------|-------------|---------------|--------------|
A|-0--0--0-----0-|-3--3--------|----5--3-0-2---|----5--3-0-2--| x2
E|---------2-3---|-------3--3--|-------------3-|--------------|
B|---------------|-------------|-3-------------|-3------------|

G|---------------|-------------||----------------|---------------||
D|---------------|-------------||o---------------|--------------o||
A|-0--0--0-----0-|-3-----------||-----5--3-0-2---|----5--3-0-2---||
E|---------2-3---|-------3-----||o-------------3-|--------------o||
B|---------------|-------------||--3-------------|-3-------------||


🎸 Outro:

G|---------------|-------------|---------------|
D|---------------|-------------|---------------|
A|-0--0------5-3-|-------------|---------------|
E|-------1-3-----|-1--1--1--1--|---------------|
B|---------------|-------------|-3-------------|


☠☠☠☠☠☠☠☠☠☠☠☠☠☠☠☠☠☠☠☠☠☠☠☠☠☠☠☠☠☠☠☠☠☠☠☠

| /  Slide up
| \  Slide down
| |o Repeat start
| o| Repeat end

☠☠☠☠☠☠☠☠☠☠☠☠☠☠☠☠☠☠☠☠☠☠☠☠☠☠☠☠☠☠☠☠☠☠☠☠

Other versions of Kerosene

KeroseneBass tabs

Almost there ...

Sign in to get your own page with links to favourite songs and more. You are just one click away...

Login with Facebook Login with Google