Log in

One click and you are in

Login with Facebook Login with Google

Why sign up and log in

Guitar Tabs Explorer
Kendrick Lamar bass tabs for Untitled 05

Bass tabs with lyrics

Tuning: Standard (E A D G)

Difficulty: Advanced

Emaj7#11

G|---------8----------8----------8----------8----------8---------8-----------|
D|-----5-8--------6-8-------6-8---------6-8--------6-8-------6-8-------------|
A|-5-6---------6-7--------6-7-------6-7--------6-7-------6-7-----------------|
E|---------------------------------------------------------------------------|

     Em7          Fmaj7       B7#9#5
G|-------7-9-----------------------------------------------------------------|
D|---7-9------------------------------------------------------5--------------|
A|--------------777--------7----------------0--2--2---------5----------------|
E|-----------------------7--7-0--1-1--1---3-------------2--3-----------------|

   Cmaj9       Am9      Fmaj9
G|---------------------------------------------------------------------------|
D|---------------------------------------------------------------------------|
A|---3-3-3-5-7---------0-0-2-3-----------------------------------------------|
E|--------------------------------0--1-1-------------------------------------|

Emaj7#11

G|---------8---------8----------8----------------------8---------8--------8--|
D|-----6-8------6-8-------6-8---------6-8--------6-8--------6-8------6-8-----|
A|-6-7-------6-7--------6-7-------6-7------7--8----------6-7------6-7--------|
E|---------------------------------------------------------------------------|

  Em7         Fmaj7    B7#9#5    Cmaj9

G|---------------------------------------------------------------------------|
D|-------------3-------------3-------------5---------------5-7---------------|
A|-2-2-2-2---2---2---------3-----2-------5-------3-3--5-7--------------------|
E|---------0--------0--1-------------2--3------------------------------------|

  Am9      Fmaj9      Emaj7#11

G|---------------------------------------------------------------------------|
D|---------------------------------------------------------------------------|
A|--0-0-2-3------------------------------------------------------------------|
E|------------0--1------1-1-1-1--0-0-0-0-0-0-0-0-0-0-0-0-0-0-0-0-0-0-0-0-0---|

the song starts

  Em7      Fmaj7      B7#9#5     Cmaj9

G|---------------------------------------------------------------------------|
D|-------------------3---3-----------------5---------------------------------|
A|--5---0-2--------3-------3-----1------5--------3--5--7--3--2---------------|
E|-----------0---1-----------1------2-3--------------------------------------|

  Am9     Fmaj7     Emaj7#11

G|--------------------------------------------8---------8------8-------8-----|
D|----------------------3-----------2-3-----6-------6-8-----6-8-----6-8------|
A|--0-0-2-3-----------3---3------0-2----5-6------6-7-----6-7-----6-7---------|
E|------------0-1-1----------1-0---------------------------------------------|

          Am9     Fmaj7    Am9    Fmaj9

G|---------------------------------------------------------------------------|
D|--------------------------------------------------------------3---2--------|
A|--7-7-7-7-5-3-2---0-0-0-2-3----------------0-0-2-3----------3---3---4--6--4|
E|----------------------------0-1-1-1-1-1-0-----------0-1-1-1----------------|

  Dm9     Db13#11   Cmaj9   Fmaj9     Em7    Fmaj9

G|---------------------------------------------------------------------------|
D|-0-0-----3----------1---------0----------3---------------------------------|
A|--------------4---4--------------------5---5-------0-2-5-7-8---------------|
E|-------3---2----4---------8-8--0-3-1---------1---0-------------------------|

  B7#9#5    Cmaj9    Am9     Fmaj7

G|---------------------------------------------------------------------------|
D|----------------------5-7--------------------------------------------------|
A|--2------2----3---5-7-------0-0-2-3----------------------------------------|
E|----2--3---3-------------------------0--1----------------------------------|

  Emaj7#11

G|----------7---------8---------8---------8----------------------------------|
D|------5-7-------6-8-------6-8-------6-8------6-8---------------------------|
A|--5-6-------6-7-------6-7-------6-7------6-7-------------------------------|
E|---------------------------------------------------------------------------|

The rap starts

  Em7      Fmaj7     B7#9#5   Cmaj9   A9     Fmaj7

G|--7------------------------------------------------------------------------|
D|----7-----------------3-----------------5-------5-7------------------3-----|
A|------5--0-2-3------3---3------2------5---3-5-7------0-0--2-3------3---3---|
E|---------------3-1--------1--4----1-3-------------------------0-1----------|

  Emaj7#11

G|--------------------------------9-9-9-7-9----4----------2-4----------------|
D|--------2-------2-------2-2-6-9------------7--------5-3--------------------|
A|----2-2-------2-------2-------------------------0--------------------------|
E|--0-------0-4-----0-3------------------------------------------------------|

  Em7   Fmaj7      B7#9#5  Cmaj7     Am9    Fmaj7

G|---------------------------------------------------------------------------|
D|--2-----------3-3--------------------------------------------------3-------|
A|----2--3----3------3-3----2------5-3--3-3-5-7-7-3--0-0-2-3-------3---3-----|
E|----------1-------------1----3-3---------------------------0-1-1-------1---|

 Emaj7#11

G|------------------7---------8---------8---------8--------------------------|
D|--2-----2-2-----5-------6-8-------6-8-------6-8----------------------------|
A|----0-2-----5-6-----5-7-------5-7-------5-7-------7-7-7-7-5-3-2------------|
E|---------------------------------------------------------------------------|

 the next song part
  Am9     Fmaj7     Am9    Fmaj7

G|---------------------------------------------------------------------------|
D|----------------------------------------------3---1------------------------|
A|--0-0-0-2-3-----------------0-0-2-3---------3--3----1-6-2------------------|
E|------------0-1-1-1-1-1-1-0---------0-1-1-1--------------------------------|

 Dm9     Db13#11   Cmaj9   Fmaj9     Em7

G|---------------------------------------------------------------------------|
D|-0-0-----3----------1---------0----------3---------------------------------|
A|--------------4---4--------------------5---5------0-2-5-7-8----------------|
E|-------3---2----4---------8-8--0-3-1---------1--0--------------------------|

   B7#9#5  Cmaj9   Am9     Fmaj7 Emaj7#11

G|--------------------------------------------------7--------8------8--------|
D|-------------------5-7------------------------5-7------6-8-----6-8---------|
A|--2-----2---3--5-7-------0-0-2-3-----------5-6------5-7-----5-7-----5------|
E|----2-3---3-----------------------0-1--------------------------------------|

2 beats break, and then the rap starts again


  Em7      Fmaj7     B7#9#5   Cmaj9   A9     Fmaj7

G|--7------------------------------------------------------------------------|
D|----7-----------------3-----------------5-------5-7------------------3-----|
A|------5--0-2-3------3---3------2------5---3-5-7------0-0--2-3------3---3---|
E|---------------3-1--------1--4----1-3-------------------------0-1----------|


  Emaj7#11

G|--------------------------------9-9-9-------8--------8---------------------|
D|--------2-------2-------2-2-6-9----------6-8-----6-8-----------------------|
A|----2-2-------2-------2---------------7-------6-7------7-------------------|
E|--0-------0-4-----0-3------------------------------------------------------|

  Em7      Fmaj7 B7#9#5  Cmaj9   A-9    Fmaj7

G|---------------------------------------------------------------------------|
D|----------2---------3---------5-------5-7----------------------------------|
A|--2-2---2---2-----3---2------5--3--5-7-----0-0-2-3-------------------------|
E|------0-------0-1--------2-3-----------------------0-1-1-1-1-1-------------|

2 beats break, acapella

  Am9      Fmaj7     Am9   Fmaj7

G|---------------------------------------------------------------------------|
D|----------------------------------------------3---1------------------------|
A|---0-0-0-2-3------------------0-2-3---------3---3---1--6-2-----------------|
E|--------------0-1-1-1-1-1-1-0-------0-1-1-1--------------------------------|

  Dm9     Db13#11       Fmaj7   Em7    Fmaj7

G|---------------------------------------------------------------------------|
D|--0-0---------4---4--------------------3-----------------------------------|
A|-------0--5-4---4--------------------3---3------0-2-5-7-8------8-10--------|
E|---------------------9-9-8-8-9-0-3-1-------1-0-----------------------------|

   B7#9#5  Cmaj9  Am9     Emaj7#11

G|-------------------------------------------7---------8-------8-------------|
D|------------------5-7------------------5-7-------6-8-----6-8---------------|
A|--2-----2---3--5-7----0-0-2-3-------5-6------5-6------5-6------------------|
E|----2-3---3-------------------0-1------------------------------------------|

The end

Almost there ...

Sign in to get your own page with links to favourite songs and more. You are just one click away...

Login with Facebook Login with Google