Log in

One click and you are in

Login with Facebook Login with Google

Why sign up and log in

Guitar Tabs Explorer
Natalia Lafourcade bass tabs for Nunca es suficiente

Nunca Es Suficiente bass tab by Natalia Lafourcade

Natalia Lafourcade bass tabs for Nunca es suficiente

Bass tabs

Tuning: Standard (E A D G)


Intro:

G|---------------------------------------------------------------------------|
D|---------------------------------------------------------------------------|
A|-5---5---5---5---5---5---5--------5--5-5-5---------------------------------|
E|---5---5---5---5---5---5-------------------5-------------------------------|

Verse 1:(0:10)

G|---------------------------------------------------------------------------|
D|------------5---5----5-7---7-----------------------------------------------|
A|-5---5----5---5----5-----7---7---5---5---3---------------------------------|
E|---5----5--------------------------5---5-----------------------------------|

G|---------------------------------------------------------------------------|
D|------------5---5----5-7---7-----------------------------------------------|
A|-5---5----5---5----5-----7---7---5---5---5---------------------------------|
E|---5----5--------------------------5---5-----------------------------------|


G|---------------------------------------------------------------------------|
D|-5---5------5--------3---3---3----3--4--5---5------------------------------|
A|---5---5--3---3----3---3---3---3----------5---5----------------------------|
E|-----------------3---------------------------------------------------------|

G|---------------------------------------------------------------------------|
D|-----------3---3---3-----3--4--5---5----5-7---7----------------------------|
A|-3---3---3---3---3----3----------5----5-----7---7---5---5---5--------------|
E|---3---3----------------------------------------------5---5----------------|


Chorus:(1:04)

G|-------------------------------------------------------------------------------------|
D|-5---5---------------3---3---3----3-----------------------5/7------------------------|
A|---5---5--3---3----3---3---3--------3----5-7---7---7----5-----7---5---5---5---5------|
E|------------3----3--------------1------5-----7---7----5---------5---5---5---5---5----|

G|--------------------------------------------------------------------------|
D|-5---5--------------------------------------------------------------------|
A|---5----5---3---3----3---3---3---1---1--5-7---7---7---5---7---5---5---5---|
E|----------3---3----3---1---1---1---1--------7---7---5---5---5---5---5-----|


Verse 2:(1:48)

G|---------------------------------------------------------------------------|
D|------------5---5----5-7---7-----------------------------------------------|
A|-5---5----5---5----5-----7---7---5---5---3---------------------------------|
E|---5----5--------------------------5---5-----------------------------------|

G|---------------------------------------------------------------------------|
D|------------5---5----5-7---7-----------------------------------------------|
A|-5---5----5---5----5-----7---7---5---5---5---------------------------------|
E|---5----5--------------------------5---5-----------------------------------|


G|---------------------------------------------------------------------------|
D|-5---5------5--------3---3---3----3--4--5---5------------------------------|
A|---5---5--3---3----3---3---3---3----------5---5----------------------------|
E|-----------------3---------------------------------------------------------|

G|---------------------------------------------------------------------------|
D|-----------3---3---3-----3--4--5---5----5-7---7----------------------------|
A|-3---3---3---3---3----3----------5----5-----7---7---5---5---5--------------|
E|---3---3----------------------------------------------5---5----------------|


Chorus:(2:42)

G|-------------------------------------------------------------------------------------|
D|-5---5------------------------------------------------------5/7----------------------|
A|---5----5---3---3----3---3---3---1---1------5-7---7---7---5-----7---5---5---5---5----|
E|----------3---3----3---1---1---1---1------------7---7---5---------5---5---5---5------|

G|-------------------------------------------------------------------------------------|
D|-5---5------------------------------------------------------5/7----------------------|
A|---5----5---3---3----3---3---3---1---1------5-7---7---7---5-----7---5---5---5---5----|
E|----------3---3----3---1---1---1---1------------7---7---5---------5---5---5---5------|

G|-------------------------------------------------------------------------------------|
D|-----------------5/7------------------------------------5/7--------------------------|
A|-5-7---7---7---5-----7---5---5---5---5--5-7---7---7---5------------------------------|
E|-----7---7---5---------5---5---5---5--------7---7---5--------------------------------|


Outro:

G|---------------------------------------------------------------------------|
D|---------------------------------------------------------------------------|
A|-5---5---5-5/7-/7------5---------------------------------------------------|
E|---5---5-----------5-------------------------------------------------------|


************************************

| / Slide up

************************************

Almost there ...

Sign in to get your own page with links to favourite songs and more. You are just one click away...

Login with Facebook Login with Google