Log in

One click and you are in

Login with Facebook Login with Google

Why sign up and log in

Guitar Tabs Explorer
Lady Lamb The Beekeeper bass tabs for Crane your neck

Crane Your Neck bass tab by Lady Lamb The Beekeeper

Lady Lamb The Beekeeper bass tabs for Crane your neck

Bass tabs

Tuning: Standard (E A D G)


Intro:

G|----4---4------------------4-----4---------------------|
D|--2---2-------6---6--4--2----2----------6-----6--4-----|
A|----------2-4---4------------------2-4---4-------------|
E|-------------------------------------------------------|

Verse 1:

G|----4---4------------------4-----4---------------------|
D|--2---2-------6----------2----2--------6-----6--4------|
A|----------2-4---4------------------2-4---4-------------|
E|-------------------------------------------------------|


G|--------2-2--------------------------2-2--------------------|
D|--4--4------2---2-2--2-2--2-2--4--4-------2---2-2--2-2-2-2--|
A|------------------------------------------------------------|
E|------------------------------------------------------------|

G|--------2-2--------------------------2-2--------------------|
D|--4--4------2---2-2--2-2--2-2--4--4-------2---2-2--2-2-2-2--|
A|------------------------------------------------------------|
E|------------------------------------------------------------|



Verse 2:
G|----4---4------------------|
D|--2---2-------6----6-------|
A|----------2-4---4----------|
E|---------------------------|

G|--------2-2--------------------------2-2----------------------|
D|--4--4------2---2-2--2-2--2-2--4--4-------2---2-2--2-2-2-2-2--|
A|--------------------------------------------------------------|
E|--------------------------------------------------------------|

G|--------2-2-------------------------2-2------------|
D|--4--4------2--2--2-2-2-2-2----4--4------2--2-2-2--|
A|---------------------------------------------------|
E|---------------------------------------------------|

{Verse 3]
G|----4---4------------------|
D|--2---2-------6---6--------|
A|----------2-4---4----------|
E|---------------------------|

G|--------2-2----------------------2-------|
D|--4--4------2---2-2--2-2------4-------2--|
A|-----------------------------------------|
E|-----------------------------------------|

G|--------2-2----------------------2----------------|
D|--4--4------2---2-2--2-2------4-------2--2-2---2-2|
A|--------------------------------------------------|
E|--------------------------------------------------|

G|--------2-2----------------------2----------------|
D|--4--4------2---2-2--2-2------4-------2--2-2---2-2|
A|--------------------------------------------------|
E|--------------------------------------------------|

G|--------2-2----------------------2----------------|
D|--4--4------2---2-2--2-2------4-------2--2-2---2-2|
A|--------------------------------------------------|
E|--------------------------------------------------|

G|-------2----------------------------|
D|----4------2--2-2---2-2---2-2-------|
A|------------------------------------|
E|------------------------------------|


Instrumental:
G|--------------------------------------------------------------|
D|--2--2-2--------2-2-2-----------------------------------------|
A|---------4-2-4--------4-2-4----4-4-4-2---2-----4-4-4-2--2-----|
E|---------------------------------------4--------------4-------|

G|--------------------------------------------------------------|
D|--2--2-2--------2-2-2-----------------------------------------|
A|---------4-2-4--------4-2-4----4-4-4-2---2-----4-4-4-2--2-----|
E|---------------------------------------4--------------4-------|

G|----2-4--2--9-9-9-9--7---7-9-7--------------------------------------|
D|--2-----------------------------------------------------------------|
A|--------------------------------------------------------------------|
E|----------------------------------0-0-0--0-2---0-0-0--0-2-----------|


G|----2-4--2--9-9-9-9--7---7-9-7--------------------------------------|
D|--2-----------------------------------------------------------------|
A|--------------------------------------------------------------------|
E|----------------------------------0-0-0--0-2---0-0-0--0-2--0--------|

G|---------------------------------------------------------------------------|
D|---------------------------------------------------------------------------|
A|---------------------------------------------------------------------------|
E|------2-----2--0---0--0-0-0-0-0----2-----4---------------------------------|


Chorus:

G|---------------------------------------------------------------------------|
D|---------------------------------------------------------------------------|
A|---------------------------------------------------------------------------|
E|0---0--0-0-0-0-0----0---0--0-0-0-0-0---------------------------------------|


G|---------------------------------------------------------------------------|
D|---------------------------------------------------------------------------|
A|---------------------------------------------------------------------------|
E|----------0---0--0-0-0-0-0---------------0---0--0-0-0-0-0------------------|

G|---------------------------------------------------------------------------|
D|---------------------------------------------------------------------------|
A|---------------------------------------------------------------------------|
E|----------0---0--0-0-0-0-0---------------0---0--0-0-0-0-0------------------|

G|--------------------------------------------------------------|
D|--2--2-2--------2-2-2-----------------------------------------|
A|---------4-2-4--------4-2-4----4-4-4-2---2-----4-4-4-2--2-----|
E|---------------------------------------4--------------4-------|


G|---------------------------------------------------------------------------|
D|---------------------------------------------------------------------------|
A|---------------------------------------------------------------------------|
E|----------0---0--0-0-0-0-0---------------0---0--0-0-0-0-0------------------|


G|--------2-2----------------------2-------|
D|--4--4------2---2-2--2-2------4-------2--|
A|-----------------------------------------|
E|-----------------------------------------|

G|--------2-2----------------------2-------|
D|--4--4------2---2-2--2-2------4-------2--|
A|-----------------------------------------|
E|-----------------------------------------|


G|------------------------------------|
D|------------------------------------|
A|------------------------------------|
E|0-----------------------------------|



************************************

Almost there ...

Sign in to get your own page with links to favourite songs and more. You are just one click away...

Login with Facebook Login with Google