Log in

One click and you are in

Login with Facebook Login with Google

Why sign up and log in

Guitar Tabs Explorer
Lady Gaga bass tabs for Judas

Bass tabs

bass tab
Kevin
kkraut@gmail.com
Main Riff:

G----5--------------|
D-------------6-5---|
A-3----3---6--------|
E-------------------|


G-------------------------|
D-------------------------|
A-6-6-6-6-6-6-5-5-5-5-5-5-|
E-------------------------|


Chorus ("I'm just a holy fool...")

G-------------------------|
D-6-6-6-6-6-5-5-5-5-5-5---|
A-------------------------|
E-------------------------|

("...but I'm still in love...)

play 2x ending w/
G---------------------|
D-1-1-1-1-1-----------|
A-----------3-3-3-3-3-|
E---------------------|

then Chorus ending 2x w/
G---------------------|
D-1-1-1-1-1-----------|
A-----------1-1-1-1-1-|

Almost there ...

Sign in to get your own page with links to favourite songs and more. You are just one click away...

Login with Facebook Login with Google