Search tabs and chords

Search for song, artist or band

Log in

One click and you are in

Login with Facebook Login with Google

Why sign up and log in

Guitar Tabs Explorer
Lady Gaga guitar tabs for Dance in the dark

Guitar tabs with lyrics

-------------------------------------------------------------------------------
			     Dance in the Dark - Lady Gaga
-------------------------------------------------------------------------------
Tabbed by: dvon88

This is a mix of vocals and music, no music tabs for the verse but there are for
the intro and chorus. To see how it is played look up my channel on YouTube of the
same name (dvon88)

Tuning:CGCFAD

Intro

d|--------------14-14-------------------14-14--------------------------------|
A|--------------------17----------------------17-----------------------------|
F| chord diagramF|F|-----------16----------16----------16----------16--------------------------|
C| chord diagramC|C|--------17----------------------17-----------------------------------------|
G|---------------------------------------------------------------------------|
C| chord diagramC|C|--14-14-------------------14-14--------------------------------------------|

d|---------------------------------------------------------------------------|
A|-------------15-15-13----------------15-15-13------------------------------|
F| chord diagramF|F|----------12----------12----------12----------12---------------------------|
C| chord diagramC|C|-------14----------------------14------------------------------------------|
G|---------------------------------------------------------------------------|
C| chord diagramC|C|--10-10------------------10-10---------------------------------------------|

d|---------------------------------------------------------------------------|
A|---------------------------------------------------------------------------|
F| chord diagramF|F|------------17-17-16--------------17-17-16---------------------------------|
C| chord diagramC|C|---------17----------17--------17----------17------------------------------|
G|--0-0-19----------------0-0-19---------------------------------------------|
C| chord diagramC|C|---------------------------------------------------------------------------|

d|---------------------------------------------------------------------------|
A|---------------------------------------------------------------------------|
F| chord diagramF|F|----------4-2--2-----------------------------------------------------------|
C| chord diagramC|C|------4-5----------/5--4--5-7----------------------------------------------|
G|---------------------------------------------------------------------------|
C| chord diagramC|C|--2-2------------0---------------------------------------------------------|

That whole thing x2

Verse Vocals

d|--/7-----------------------------------------------------------------------|
A|------5--\(3)--5--5p3--5-5-3-----------------------------------------------|
F| chord diagramF|F|-----------------------------5---------------------------------------------|
C| chord diagramC|C|---------------------------------------------------------------------------|
G|---------------------------------------------------------------------------|
C| chord diagramC|C|---------------------------------------------------------------------------|

d|--0-/7---------------------------------------------------------------------|
A|--------5-\(3)--5-5p3-/8--8--5---------------------------------------------|
F| chord diagramF|F|---------------------------------------------------------------------------|
C| chord diagramC|C|---------------------------------------------------------------------------|
G|---------------------------------------------------------------------------|
C| chord diagramC|C|---------------------------------------------------------------------------|

d|--0-/7---------------------------------------------------------------------|
A|-------5-5\(3)-5p3-5-5p3-5~-5p3-5-5p3-5-5p3-/8-8-5-5p3-5-5p3-5p3-5-12-10-8-|
F| chord diagramF|F|---------------------------------------------------------------------------|
C| chord diagramC|C|---------------------------------------------------------------------------|
G|---------------------------------------------------------------------------|
C| chord diagramC|C|---------------------------------------------------------------------------|

Prechorus

d|---------------------------------------------------------------------------|
A|---------------------------------------------------------------------------|
F| chord diagramF|F|---------------------------------------------------------------------------|
C| chord diagramC|C|---------------------------------------------------------------------------|
G|---------------------------------------------------------------------------|
C| chord diagramC|C|--99999-77777--------------------------------------------------------------|

Chorus

Strum these

d|---------------------------------------------------------------------------|
A|---------------------------------------------------------------------------|
F| chord diagramF|F|-----7-----5---------------------------------------------------------------|
C| chord diagramC|C|--5--7--2--5---------------------------------------------------------------|
G|--5--5--2--3---------------------------------------------------------------|
C| chord diagramC|C|--5-----2------------------------------------------------------------------|

For the vocals play this

d|--7-7-7-7-10---------------------------/10-8-7---------7-7-7-7-10----------|
A|-------------8--8--8-10--/8-10-8-10-8----------/10\8-------------8-8-8-10--|
F| chord diagramF|F|---------------------------------------------------------------------------|
C| chord diagramC|C|---------------------------------------------------------------------------|
G|---------------------------------------------------------------------------|
C| chord diagramC|C|---------------------------------------------------------------------------|

d|--7-7-7-7-10--------------------------/10-8-7------------------------------|
A|-------------8--8--8-10--/8-10-8-10-8---------/10\8-5-5-5-5-5--5-5-5-8-7---|
F| chord diagramF|F|-------------------------------------------------------------------------5-|
C| chord diagramC|C|---------------------------------------------------------------------------|
G|---------------------------------------------------------------------------|
C| chord diagramC|C|---------------------------------------------------------------------------|

Then back to

d|--------------14-14-------------------14-14--------------------------------|
A|--------------------17----------------------17-----------------------------|
F| chord diagramF|F|-----------16----------16----------16----------16--------------------------|
C| chord diagramC|C|--------17----------------------17-----------------------------------------|
G|---------------------------------------------------------------------------|
C| chord diagramC|C|--14-14-------------------14-14--------------------------------------------|

d|---------------------------------------------------------------------------|
A|-------------15-15-13----------------15-15-13------------------------------|
F| chord diagramF|F|----------12----------12----------12----------12---------------------------|
C| chord diagramC|C|-------14----------------------14------------------------------------------|
G|---------------------------------------------------------------------------|
C| chord diagramC|C|--10-10------------------10-10---------------------------------------------|

d|---------------------------------------------------------------------------|
A|---------------------------------------------------------------------------|
F| chord diagramF|F|------------17-17-16--------------17-17-16---------------------------------|
C| chord diagramC|C|---------17----------17--------17----------17------------------------------|
G|--0-0-19----------------0-0-19---------------------------------------------|
C| chord diagramC|C|---------------------------------------------------------------------------|

d|---------------------------------------------------------------------------|
A|---------------------------------------------------------------------------|
F| chord diagramF|F|----------4-2--2-----------------------------------------------------------|
C| chord diagramC|C|------4-5----------/5--4--5-7----------------------------------------------|
G|---------------------------------------------------------------------------|
C| chord diagramC|C|--2-2------------0---------------------------------------------------------|

Once


Verse 2 Vocals

d|--/7-----------------------------------------------------------------------|
A|------5--\(3)--5--5p3--5-5-3-----------------------------------------------|
F| chord diagramF|F|-----------------------------5---------------------------------------------|
C| chord diagramC|C|---------------------------------------------------------------------------|
G|---------------------------------------------------------------------------|
C| chord diagramC|C|---------------------------------------------------------------------------|

d|--0-/7---------------------------------------------------------------------|
A|--------5-\(3)--5-5p3-/8--8--5--I add a little quick solo here-------------|
F| chord diagramF|F|---------------------------------------------------------------------------|
C| chord diagramC|C|---------------------------------------------------------------------------|
G|---------------------------------------------------------------------------|
C| chord diagramC|C|---------------------------------------------------------------------------|

d|--0-/7-----------------------------------------------------------------------|
A|-------5-5\(3)-5p3-5-5p3-5~-5p3-5-5p3-5-5p3-/8-8-8-5-5p3-5-5p3-5p3-5-12-10-8-|
F| chord diagramF|F|-----------------------------------------------------------------------------|
C| chord diagramC|C|-----------------------------------------------------------------------------|
G|-----------------------------------------------------------------------------|
C| chord diagramC|C|-----------------------------------------------------------------------------|

Prechorus

d|---------------------------------------------------------------------------|
A|---------------------------------------------------------------------------|
F| chord diagramF|F|---------------------------------------------------------------------------|
C| chord diagramC|C|---------------------------------------------------------------------------|
G|---------------------------------------------------------------------------|
C| chord diagramC|C|--99999-77777--------------------------------------------------------------|

Chorus

Strum these

d|---------------------------------------------------------------------------|
A|---------------------------------------------------------------------------|
F| chord diagramF|F|-----7-----5---------------------------------------------------------------|
C| chord diagramC|C|--5--7--2--5---------------------------------------------------------------|
G|--5--5--2--3---------------------------------------------------------------|
C| chord diagramC|C|--5-----2------------------------------------------------------------------|

For the vocals play this

d|--7-7-7-7-10---------------------------/10-8-7---------7-7-7-7-10----------|
A|-------------8--8--8-10--/8-10-8-10-8----------/10\8-------------8-8-8-10--|
F| chord diagramF|F|---------------------------------------------------------------------------|
C| chord diagramC|C|---------------------------------------------------------------------------|
G|---------------------------------------------------------------------------|
C| chord diagramC|C|---------------------------------------------------------------------------|

d|--7-7-7-7-10--------------------------/10-8-7------------------------------|
A|-------------8--8--8-10--/8-10-8-10-8---------/10\8-5-5-5-5-5--5-5-5-8-7---|
F| chord diagramF|F|-------------------------------------------------------------------------5-|
C| chord diagramC|C|---------------------------------------------------------------------------|
G|---------------------------------------------------------------------------|
C| chord diagramC|C|---------------------------------------------------------------------------|

For the interlude I just made up a D chord diagramDD Minor harmony, never transcribed the chords
in the background

The only difference from there until the end is a bend on the last chorus where
the music cuts and she sings "babyyyyyyy" just do this

d|--10b-----p7--10-----------------------------------------------------------|

then continue the chorus as usual and the rest fades out.


************************************

| /   slide up
| \   slide down
| h   hammer-on
| p   pull-off
| ~   vibrato
| +   harmonic
| x   Mute note
| b   Bend
| pb  Pre-bend
| br  Bend release
| pbr Pre-bend release
| brb Bend release bend

************************************

Other versions of Dance In The Dark

Dance in The DarkChords

Almost there ...

Sign in to get your own page with links to favourite songs and more. You are just one click away...

Login with Facebook Login with Google