Search tabs and chords

Search for song, artist or band

Log in

One click and you are in

Login with Facebook Login with Google

Why sign up and log in

Guitar Tabs Explorer
Lady Gaga bass tabs for Born this way

Bass tabs

Intro:

G|-----------------|-----------------|-----------------|-----------------|
D|-----------------|-----------------|-----------------|-----------------|
A|-----------------|-----------------|-3---3---3---3---|-----------------|
D|-5---5---5---5---|-3---3---3---3---|-----------------|-5---5---5---5---|

Verse:
No bass for the first eight bars but the roots are shown if you want to play them.

G|-----------------|-----------------|-----------------|-----------------|
D|-----------------|-----------------|-----------------|-----------------|
A|-----------------|-----------------|-3---------------|-----------------|
D|-5---------------|-3---------------|-----------------|-5---------------|

G|-----------------|-----------------|-----------------|-----------------|
D|-----------------|-----------------|-----------------|-----------------|
A|-----------------|-----------------|-3---------------|-----------------|
D|-5---------------|-3---------------|-----------------|-5---------------|

G|-----------------|-----------------|-----------------|-----------------|
D|-----------------|-----------------|-----------------|-----------------|
A|-----------------|-----------------|-3---3---3---3---|-----------------|
D|-5---5---5---5---|-3---3---3---3---|-----------------|-5---5---5---5---|

G|-----------------|-----------------|-----------------|-----------------|
D|-----------------|-----------------|-----------------|-----------------|
A|-----------------|-----------------|-3---3---3---3---|-----------------|
D|-5---5---5---5---|-3---3---3---3---|-----------------|-5---\---\--\0---|

Chorus:

G|-----------------|-----------------|-----------------|-----------------|
D|-----------------|-----------------|-----------------|-----------------|
A|-----------------|-----------------|-3---3---3---3---|-----------------|
D|-5---5---5---5---|-3---3---3---3---|-----------------|-5---5---5---5---|

G|-----------------|-----------------|-----------------|-----------------|
D|-----------------|-----------------|-----------------|-----------------|
A|-----------------|-----------------|-3---3---3---3---|-----------------|
D|-5---5---5---5---|-3---3---3---3---|-----------------|-5---5---5---5---|

G|-----------------|-----------------|-----------------|-----------------|
D|-----------------|-----------------|-----------------|-----------------|
A|-----------------|-----------------|-3---3---3---3---|-----------------|
D|-5---5---5---5---|-3---3---3---3---|-----------------|-5---5---5---5---|

G|-----------------|-----------------|-----------------|-----------------|
D|-----------------|-----------------|-----------------|-----------------|
A|-----------------|-----------------|-3---3---3---3---|-----------------|
D|-5---5---5---5---|-3---3---3---3---|-----------------|-5---5---5---5---|

Post Chorus:

G|-----------------|-----------------|-----------------|-----------------|
D|-----------------|-----------------|-----------------|-----------------|
A|-----------------|-----------------|-----------------|-----------------|
D|-----------------|-----------------|-----------------|-5---\---\---0/--|

Verse:

G|-----------------|-----------------|-----------------|-----------------|
D|-----------------|-----------------|-----------------|-5---5---5---5---|
A|-----------------|-----------------|-3---3---3---3---|-----------------|
D|-5---5---5---5---|-3---3---3---3---|-----------------|-5---5---5---5---|

G|-----------------|-----------------|-----------------|-----------------|
D|-----------------|-----------------|-----------------|-----------------|
A|-----------------|-----------------|-3---3---3---3---|-----------------|
D|-5---5---5---5---|-3---3---3---3---|-----------------|-5---5---5\0-5\0-|

G|-----------------|-----------------|-----------------|-----------------|
D|-----------------|-----------------|-----------------|-----------------|
A|-----------------|-----------------|-3---3---3---3---|-----------------|
D|-5---5---5---5---|-3---3---3---3---|-----------------|-5---5---5---5---|

G|-----------------|-----------------|-----------------|------------------|
D|-----------------|-----------------|-----------------|------------------|
A|-----------------|-----------------|-3---3-----------|------------------|
D|-5---5---5---5---|-3---3---3---3---|-----------------|-17---\---\---\---|

Chorus:

G|-----------------|-----------------|-----------------|-----------------|
D|-----------------|-----------------|-----------------|-----------------|
A|-----------------|-----------------|-3---3---3---3---|-----------------|
D|-5---5---5---5---|-3---3---3---3---|-----------------|-5---5---5---5---|

G|-----------------|-----------------|-----------------|-----------------|
D|-----------------|-----------------|-----------------|-----------------|
A|-----------------|-----------------|-3---3---3---3---|-----------------|
D|-5---5---5---5---|-3---3---3---3---|-----------------|-5---5---5---5---|

G|-----------------|-----------------|-----------------|-----------------|
D|-----------------|-----------------|-----------------|-----------------|
A|-----------------|-----------------|-3---3---3---3---|-----------------|
D|-5---5---5---5---|-3---3---3---3---|-----------------|-5---5---5---5---|

G|-----------------|-----------------|-----------------|-----------------|
D|-----------------|-----------------|-----------------|-----------------|
A|-----------------|-----------------|-3---3---3---3---|-----------------|
D|-5---5---5---5---|-3---3---3---3---|-----------------|-5---5---5---5---|

Interlude:

G|-----------------|-----------------|-----------------|-----------------|
D|-----------------|-----------------|-----------------|-----------------|
A|-----------------|-----------------|-----------------|-----------------|
D|-----------------|-----------------|-----------------|-----------------|

G|-----------------|-----------------|-----------------|-----------------|
D|-----------------|-----------------|-----------------|-----------------|
A|-----------------|-----------------|-----------------|-----------------|
D|-5-5-5-5-5-5-5-5-|-5-5-5-5-5-5-5-5-|-5-5-5-5-5-5-5-5-|-----------------|

Chorus:

G|-----------------|-----------------|-----------------|-----------------|
D|-----------------|-----------------|-----------------|-----------------|
A|-----------------|-----------------|-----------------|-----------------|
D|-----------------|-----------------|-----------------|-----------------|

G|-----------------|-----------------|-----------------|-----------------|
D|-----------------|-----------------|-----------------|-----------------|
A|-----------------|-----------------|-----------------|-----------------|
D|-----------------|-----------------|-----------------|-5---\---\---0---|

G|-----------------|-----------------|-----------------|-----------------|
D|-----------------|-----------------|-----------------|-----------------|
A|-----------------|-----------------|-3---3---3---3---|-----------------|
D|-5---5---5---5---|-3---3---3---3---|-----------------|-5---5---5---5---|

G|-----------------|-----------------|-----------------|-----------------|
D|-----------------|-----------------|-----------------|-----------------|
A|-----------------|-----------------|-3---3---3---3---|-----------------|
D|-5---5---5---5---|-3---3---3---3---|-----------------|-5---5---5---5---|

G|-----------------|-----------------|-----------------|-----------------|
D|-----------------|-----------------|-----------------|-----------------|
A|-----------------|-----------------|-3---3---3---3---|-----------------|
D|-5---5---5---5---|-3---3---3---3---|-----------------|-5---5---5---5---|

G|-----------------|-----------------|-----------------|-----------------|
D|-----------------|-----------------|-----------------|-----------------|
A|-----------------|-----------------|-3---3---3---3---|-----------------|
D|-5---5---5---5---|-3---3---3---3---|-----------------|-5---5---5---5---|

Outro:
No bass but these are the notes if you want to play along.

G|-----------------|-----------------|-----------------|-----------------|
D|-----------------|-----------------|-----------------|-----------------|
A|-----------------|-----------------|-----------------|-----------------|
D|-5-------5-------|-3-------3-------|-5-------5-------|-3-------3-------|

G|-----------------|-----------------|-----------------|-----------------|
D|-----------------|-----------------|-----------------|-----------------|
A|-----------------|-----------------|-----------------|-----------------|
D|-----------------|-----------------|-----------------|-----------------|


************************************

| /   Slide up
| \   Slide down

Almost there ...

Sign in to get your own page with links to favourite songs and more. You are just one click away...

Login with Facebook Login with Google