Search tabs and chords

Search for song, artist or band

Log in

One click and you are in

Login with Facebook Login with Google

Why sign up and log in

Guitar Tabs Explorer
Lady Gaga guitar chords for A star is born - shallow ukulele (Ver. 2)

A Star Is Born - Shallow Ukulele chords by Lady Gaga (Ver. 2)

Lady Gaga guitar chords for A star is born - shallow ukulele (Ver. 2)

Guitar chords with lyrics

Tuning: G C E A (G C E A)

Key: Em

Intro: (x2, then repeat 1st measure once)

   Em:        D:  G:  (4 counts)  C:                          G: D:
A|------2-------0----2--|----------|--------3-----------3------3---2---0--|
E|------3-------2----3--|----------|--------0-----------0------0---3---2--|
C|----4---4-----2----2--|----------|-----0-----0-----0-----0---0---2---2--|
G|--0--------2--2----0--|----------|--0-----------0------------0---0---2--|

Verse 1: (x2)

   Em:        D:  G:  (4 counts)  C:                          G: D:
A|------2-------0----2--|----------|--------3-----------3------3---2---0--|
E|------3-------2----3--|----------|--------0-----------0------0---3---2--|
C|----4---4-----2----2--|----------|-----0-----0-----0-----0---0---2---2--|
G|--0--------2--2----0--|----------|--0-----------0------------0---0---2--|

Verse 2: (x2)

   Em:        D:  G:  (4 counts)  C:                     G:             D:
A|------2-------0----2--|----------|--------3-----------3-----------2---------0--|
E|------3-------2----3--|----------|--------0-----------0-----------3---------2--|
C|----4---4-----2----2--|----------|-----0-----0-----0-----0-----2-----2------2--|
G|--0--------2--2----0--|----------|--0-----------0-----------0-----------0---2--|

Break: (x2)

   Em:        D:  G:
A|------2-------0----2--|
E|------3-------2----3--|
C|----4---4-----2----2--|
G|--0--------2--2----0--|

Chorus: (x2)

   Am:      D:       G:       D:      Em:
A|--0---------0------|--------2---------0--------2-----------2-----|
E|--0---------2------|--------3---------2--------3-----------3-----|
C|--0---------2------|-----2---------2--------4-----4-----4-----4--|
G|--2---------2------|--0---------2--------0-----------0-----------|

Post-Chorus:

   Am:                    D:               G:       D:      Em:
A|-------0-----------3------------0--------|--------2---------0--------2-----------2-----|
E|-------0-----------0------------2--------|--------3---------2--------3-----------3-----|
C|----0-----0-----0-----0------2-----2-----|-----2---------2--------4-----4-----4-----4--|
G|--2----------2------------2-----------2--|--0---------0--------0-----------0-----------|

Verse 1:
Em          D     G
Tell me something girl
C                     G      D
Are you happy in this modern world
Em        D    G
Or do you need more
C                              G         D
Is there something else you’re searching for

Verse 2:
Em         D    G
I’m fall-in'
C                       G    D         Em   D   G
In all the good times I find myself longin' for change
C                      G    D
And in the bad times I feel myself

Break:
Em D G
Em D G

Verse 3:
Em         D      G
Tell me something boy
C                          G      D
Aren’t you tired trying fill that void
Em        D    G
Or do you need more
C                        G  D
Ain’t it hard keeping it so hardcore

Verse 4:
Em  D    G
I’m fall-ing
C                       G    D          Em  D   G
In all the good times I find myself longin' for change
C                      G    D
And in the bad times I feel myself

Chorus:
Am                   D
I’m off the deep end watch as I dive in
G          D       Em
I’ll never meet the ground
Am                        D
Crash through the surface where they can’t hurt us
      G            D       Em
We’re far from the shallow now

Post–Chorus:
Am             D
In the sha-ha-sha-ha-low
G      D             Em
In the sha-ha-sha-la-la-la-low
Am             D
In the sha-ha-sha-ha-ha-low
      G            D       Em
We’re far from the shallow now

Bridge: (D-D-D-DU x2 for each chord for the rest of the song)
Em Bm D
Wooaaaah
A     Em     Bm    D   A
Woaaaaaaaaaaaaaaaaaaaaaaahhhhh

Chorus:
Am                   D
I’m off the deep end watch as I dive in
G          D       Em
I’ll never meet the ground
Am                        D
Crash through the surface where they can’t hurt us
      G            D       Em
We’re far from the shallow now

Post-Chorus:
Am             D
In the sha-ha-sha-ha-low
G      D             Em
In the sha-ha-sha-la-la-la-low
Am             D
In the sha-ha-sha-ha-ha-low
      G            D       Em
We’re far from the shallow now

Last line:
   G:       D:       Em:
A|--2---------0------|--------2-----------2-----2--|
E|--3---------2------|--------3-----------3-----3--|
C|--2---------2------|-----4-----4-----4-----4--4--|
G|--0---------2------|--0-----------0-----------0--|

Other versions of A Star Is Born - Shallow Ukulele

A star is born - shallow ukuleleChords

Almost there ...

Sign in to get your own page with links to favourite songs and more. You are just one click away...

Login with Facebook Login with Google