Mes Amis by La Ruelle En Chantier

Mes Amis chords by La Ruelle En Chantier

Guitar chords with lyrics

Intro:
Em
e|----------------|----------------|----------------|----------------|
B|----------------|----------------|----------------|----------------|
G|----------------|----------------|----------------|----------------|
D|-2-2-2-2-2----0-|-2-2-2-2-2----0-|-2-2-2-2-2----0-|-2-2-2-2-2----0-|
A|-2-2-2-2-2----0-|-2-2-2-2-2----0-|-2-2-2-2-2----0-|-2-2-2-2-2----0-|
E|-0-3-0-3-0----0-|-0-3-0-3-0----0-|-0-3-0-3-0----0-|-0-3-0-3-0----0-|

 Em     Am
À petit feu, à petits pas
  B7       Em
La mort se perd en amitié
  Em       Am
Entre les verres et les repas
  B7       Em
Ces petits instants déguisés

 Em         Am
Vous mes amis, je vous le jure
   B7          Em
Au grand toujours, je vous aimerai
  Em       Am
Malgré ce petit tas d'injures
  B7       Em
Je l'ai pensé qu'à moitié

Chorus:
  B7    Em
Car ce soir, j'ai envie
  D         G
De passer mes jours entre nous
  B7       Em
Vous mes amis, entre vos yeux
  D         G
Je me sens bien, je me sens mieux

  B7    Em
Car ce soir, j'ai envie
  D         G
De passer mes jours entre nous
  B7       Em
Vous mes amis, entre vos mains
  D         Em
Je me sens mieux, je me sens bien

Interlude:
  D G B7 Em
  D G B7 Em

e|---------------|
B|---------------|
G|---------------|
D|---------------|
A|-----0-2-0-----|
E|-0-3-------3-0-|


 Em     Am
Le temps se perd en conjecture
  B7       Em
Et ne fait pas dans la dentelle
 Em     Am
À 3 doigts de la rupture
  B7       Em
On bat toujours un peu de l'aile

 Em         Am
Alors souvent, on fait semblant
  B7       Em
Et on s'invente des histoires
 Em         Am
Et de sourires en petits blancs
  B7       Em
On finirait même par y croire

Chorus:

  B7    Em
Car ce soir, j'ai envie
  D         G
De passer mes jours entre nous
  B7       Em
Vous mes amis, entre vos yeux
  D         G
Je me sens bien, je me sens mieux

  B7    Em
Car ce soir, j'ai envie
  D         G
De passer mes jours entre nous
  B7       Em
Vous mes amis, entre vos mains
  D         Em
Je me sens mieux, je me sens bien

Interlude:
  D G B7 Em
  D G B7 Em

e|---------------|
B|---------------|
G|---------------|
D|---------------|
A|-----0-2-0-----|
E|-0-3-------3-0-|

 Em     Am
Trop peu de si, bien trop de ça
  B7       Em
C'est ainsi qu'on continuera
 Em     Am
À l'imparfait du subjugué
  B7       Em
Est donné de se supporter

 Em     Am
C'est tout au fond de cette ruelle
  B7       Em
Partageant un bout de tonnelle
 Em     Am
Quand on dira : " nous, c'est pour la vie
  B7    Em
Mes amis "

Chorus:
  B7    Em
Car ce soir, j'ai envie
  D         G
De passer mes jours entre nous
  B7       Em
Vous mes amis, entre vos yeux
  D         G
Je me sens bien, je me sens mieux

  B7    Em
Car ce soir, j'ai envie
  D         G
De passer mes jours entre nous
  B7       Em
Vous mes amis, entre vos mains
  D         Em
Je me sens mieux, je me sens bien

Find guitar tabs and chords

A B C D E F G H I J K L M N O P Q R S T U V W X Y Z #