Guitar Tabs Explorer
La Roux guitar tabs for In for the kill

In For The Kill tab


Be the first to rate

In For The Kill tab by La Roux

Guitar tabs with lyrics

Print

Standard Tuning

-4-------------------7--------4-------------------------------------4------|
-4-------------------9--------6-------------------------------------4------|
-5-------------------9--------6-------------------------------------5------|
-6-------------------9--------6-------------------------------------6------|
-6-------------------7--------4-------------------------------------6------|
-4-------------------7--------4-------------------------------------4------|
We can fight our desires, ooooo-ooooo, but when we start making fires.

-4-------------------7--------4----------------------------4------|
-4-------------------9--------6----------------------------4------|
-5-------------------9--------6----------------------------5------|
-6-------------------9--------6----------------------------6------|
-6-------------------7--------4----------------------------6------|
-4-------------------7--------4----------------------------4------|
We can't have it so hot, ooooo-ooooo, whether we like it or not.

-4--------------------------7--------4-----------------------------------4------|
-4--------------------------9--------6-----------------------------------4------|
-5--------------------------9--------6-----------------------------------5------|
-6--------------------------9--------6-----------------------------------6------|
-6--------------------------7--------4-----------------------------------6------|
-4--------------------------7--------4-----------------------------------4------|
They say we can love who we trust, ooooo-ooooo, but what is love without lust?

-4-----------------------------7----------4---------------------------------4------|
-4-----------------------------9----------6---------------------------------4------|
-5-----------------------------9----------6---------------------------------5------|
-6-----------------------------9----------6---------------------------------6------|
-6-----------------------------7----------4---------------------------------6------|
-4-----------------------------7----------4---------------------------------4------|
Two hearts with accurate devotions, ooooo-ooooo, what are feelings without emotions?

Chorus

-2----------------------7-------|
-4----------------------9-------|
-4----------------------9-------|
-4----------------------9-------|
-2----------------------7-------|
-2----------------------7-------|
 I'm Going in for the kill,

-------------------7-------|
-------------------9-------|
-------------------9-------|
-------------------9-------|
-------------------7-------|
-------------------7-------|
I'm doing it for a thrill,

----------------------2-------|
----------------------2-------|
----------------------3-------|
----------------------4-------|
----------------------4-------|
----------------------2-------|
oh I'm hoping you'll understand,

--------------------4----|
--------------------4----|
--------------------5----|
--------------------6----|
--------------------6----|
--------------------4----|
and now let go of my hand.

x2

Instrumental - same chords as verse


I hang my hopes out on the line,

ooooo-ooooo,

will they be ready for you in time?


If you leave them out too long,

ooooo-ooooo,

they'll be withered by this song.


Full-stops and exclamation-marks,

ooooo-ooooo

my words stumble before I start.


How far can you send emotions?

ooooo-ooooo

Can this bridge cross the ocean?


CHORUS:

I'm Going in for the kill,

I'm doing it for a thrill,

oh I'm hoping you'll understand,

and now let go of my hand.

x2

-2--------------------2-------|
-4--------------------2-------|
-4--------------------3-------|
-4--------------------4-------|
-2--------------------4-------|
-2--------------------2-------|
Lets call to all to make peace,

-7-------------------4-------|
-9-------------------4-------|
-9-------------------3-------|
-9-------------------5-------|
-7-------------------5-------|
-7-------------------4-------|
Lets by cold to create ease.

-2----------------------2-------|
-4----------------------2-------|
-4----------------------3-------|
-4----------------------4-------|
-2----------------------4-------|
-2----------------------2-------|
Open darkness we can see,

-7----------------------------------4-------|
-9----------------------------------4-------|
-9----------------------------------3-------|
-9----------------------------------5-------|
-7----------------------------------5-------|
-7----------------------------------4-------|
You're not blind, borrow the light from me.


Vocal solo - same chords as verse.


CHORUS:

I'm Going in for the kill,

I'm doing it for a thrill,

oh I'm hoping you'll understand,

and now let go of my hand.

Other versions of In For The Kill

In for the killChords
In for the kill (Ver. 2)Chords

Comment this song and these guitar tabs

Do you have corrections, comments on the guitar tabs, thoughts about the song or a message to the author? Write them below.