Tornasol by La Gusana Ciega

Tornasol tab by La Gusana Ciega

Guitar tabs

Intro
	A	E	 D	 E
E|------0-0-0---0-0-0-0---2-2-0---0-0-0-0--|00-00|--------------|
B|------2-2-0---0-0-2-0---3-3-3---0-0-2-0--|00-00|--------------|
G|------2-2-2---1-1-1-1---2-2-2---1-1-1-1--|11-11|--------------|
D|------2-2-2---2-2-2-2---0-0-0---2-2-2-2--|22-22|--------------|
A|------0-0-0---2-2-2-2-----------2-2-2-2--|22-22|--------------|
E|------0-0-0---0-0-0-0-----------0-0-0-0--|00-00|--------------|

Riff 1
E|------------------------------------------------------------------------|
B|------------------------------------------------------------------------|
G|-------(0)-6-7-9-------(0)-6-7-9-----(0)-6-7-9--6-7-9---6-7-9-6-7-9-----|
D|-7-7-9---------7-7-9----------7-7-9-------------------------------------|
A|------------------------------------------------------------------------|
E|------------------------------------------------------------------------|

Verso:
A    E  D    E       A
Estamos esperando tu cambio de estacion
   E    D   E       A
tu vision de lluvia, tu nueva confusion
    E    D       E
tal vez no sere yo quien pueda descifrarte


E|------------------------------------------------------------------------|
B|------------------------------------------------------------------------|
G|-------(0)-6-7-9--------(0)-6-7-9-------(0)-6-7-9--6-7-9---6-7-9-6-7-9--|
D|-7-7-9-----------7-7-9------------7-7-9---------------------------------|
A|------------------------------------------------------------------------|
E|------------------------------------------------------------------------|

A   E   D    E       A
Tu disfraz de nina esconde tu misi0n,
   E   D     E     A
luego te descubres, tormenta de pasi0n,
     E    D       E     A
tal vez hoy seré yo quien pueda descifrarte.



Coro
A     E    D       E
Vuelves a ser mis suenos mi dulce sirena
A     E   D       E
vuelves a ser el sol que quema las estrellas
A    E      D      E
los girasoles pasan horas sin poder besarte
A    E   D     E
vueves a ser el universo de repente

E|------------------------------------------------------------------------|
B|------------------------------------------------------------------------|
G|-------(0)-6-7-9--------(0)-6-7-9-------(0)-6-7-9--6-7-9---6-7-9-6-7-9--|
D|-7-7-9-----------7-7-9------------7-7-9---------------------------------|
A|------------------------------------------------------------------------|
E|------------------------------------------------------------------------|

A  E    D      E     A
Cada vez que cambian tus suenos de color,
    E   D     E      A
luces tan distinta tu piel es tornasol,
    E   D      E     A
tu raz0n es una funci0n interminable.



Coro:

A     E    D       E
Vuelves a ser mis suenos mi dulce sirena
A     E   D       E
vuelves a ser el sol que quema las estrellas
A    E      D      E
los girasoles pasan horas sin poder besarte
A    E   D     E
vueves a ser el universo de repente



A    D
No creo que puedas saber
A     D
lo que se siente caer del parasol
F#m     D   E
al sueno intermitente
F#m      D   E    F#m  E
de la luz al fondo de tu esfera donde todo gira y luego lentamente

Coro:

A     E    D       E
Vuelves a ser mis suenos mi dulce sirena
A     E   D       E
vuelves a ser el sol que quema las estrellas
A    E      D      E
los girasoles pasan horas sin poder besarte
A    E   D     E
vueves a ser el universo de repente
E|------------------------------------------------------------------------|
B|------------------------------------------------------------------------|
G|-------(0)-6-7-9--------(0)-6-7-9-------(0)-6-7-9--6-7-9---6-7-9-6-7-9--|
D|-7-7-9-----------7-7-9------------7-7-9---------------------------------|
A|------------------------------------------------------------------------|
E|------------------------------------------------------------------------|

Find guitar tabs and chords

A B C D E F G H I J K L M N O P Q R S T U V W X Y Z #