Log in

One click and you are in

Login with Facebook Login with Google

Why sign up and log in

Guitar Tabs Explorer
L.a.b. bass tabs for In the air

Bass tabs

Tuning: Standard (E A D G)

This song has two parts. a Main riff for the Intro, Verse, Break, and Outro. And a Bridge part.


Intro:

G|----------------5-----7/9---7----5---------5-h7-|------------------------------------------------|
D|-------------7-----------------------7----------|----------------5-----5----(5)--------5---------|
A|-5----------------------------------------------|-------------7-----7--------------------8--7--8-| x4
E|------------------------------------------------|-5--------5-------------------------------------|
  1 & 2 & 3 & 4 & 1 & 2 & 3 & 4 &  1 & 2 & 3 & 4 & 1 & 2 & 3 & 4 &
Verse:

G|----------------5-----7/9---7----5---------5-h7-|------------------------------------------------|
D|-------------7-----------------------7----------|----------------5-----5----(5)--------5---------|
A|-5----------------------------------------------|-------------7-----7--------------------8--7--8-| x4
E|------------------------------------------------|-5--------5-------------------------------------|
  1 & 2 & 3 & 4 & 1 & 2 & 3 & 4 &  1 & 2 & 3 & 4 & 1 & 2 & 3 & 4 &


Break:

G|----------------5-----7/9---7----5---------5-h7-|------------------------------------------------|
D|-------------7-----------------------7----------|----------------5-----5----(5)--------5---------|
A|-5----------------------------------------------|-------------7-----7--------------------8--7--8-| x4
E|------------------------------------------------|-5--------5-------------------------------------|
  1 & 2 & 3 & 4 & 1 & 2 & 3 & 4 &  1 & 2 & 3 & 4 & 1 & 2 & 3 & 4 &


Verse:

G|----------------5-----7/9---7----5---------5-h7-|------------------------------------------------|
D|-------------7-----------------------7----------|----------------5-----5----(5)--------5---------|
A|-5----------------------------------------------|-------------7-----7--------------------8--7--8-| x4
E|------------------------------------------------|-5--------5-------------------------------------|
  1 & 2 & 3 & 4 & 1 & 2 & 3 & 4 &  1 & 2 & 3 & 4 & 1 & 2 & 3 & 4 &

break:

G|----------------5-----7/9---7----5---------5-h7-|------------------------------------------------|
D|-------------7-----------------------7----------|----------------5-----5----(5)--------5---------|
A|-5----------------------------------------------|-------------7-----7--------------------8--7--8-| x2
E|------------------------------------------------|-5--------5-------------------------------------|
  1 & 2 & 3 & 4 & 1 & 2 & 3 & 4 &  1 & 2 & 3 & 4 & 1 & 2 & 3 & 4 &


Bridge:
                                        p
G|------------------------------------------------|----------------5-----------7-----------7-----9-| \
D|------------------------------------------------|-------------7----------------------------------|  |
A|------------------------------------------------|-5--------------------5--------------5-----7----|  |
E|-1--------1--1-----------3--------3--3-------(3)|------------------------------------------------|  |
  1 & 2 & 3 & 4 & 1 & 2 & 3 & 4 &  1 & 2 & 3 & 4 & 1 & 2 & 3 & 4 &   \
                                                     |-x2
G|-------------10----------------------9----------|----------------5----/7-------------------------|  /
D|----------------10----------------------9-------|-------------7----------------------------------|  |
A|-8-------(8)-------------7-------(7)------(7)---|-5-------(5)------------------------------------|  |
E|------------------------------------------------|------------------------------------------------|  |
  1 & 2 & 3 & 4 & 1 & 2 & 3 & 4 &  1 & 2 & 3 & 4 & 1 & 2 & 3 & 4 &  /


Verse:

G|----------------5-----7/9---7----5---------5-h7-|------------------------------------------------|
D|-------------7-----------------------7----------|----------------5-----5----(5)--------5---------|
A|-5----------------------------------------------|-------------7-----7--------------------8--7--8-| x4
E|------------------------------------------------|-5--------5-------------------------------------|
  1 & 2 & 3 & 4 & 1 & 2 & 3 & 4 &  1 & 2 & 3 & 4 & 1 & 2 & 3 & 4 &


Outro:

G|----------------5-----7/9---7----5---------5-h7-|------------------------------------------------|
D|-------------7-----------------------7----------|----------------5-----5----(5)--------5---------|
A|-5----------------------------------------------|-------------7-----7--------------------8--7--8-| x6
E|------------------------------------------------|-5--------5-------------------------------------|
  1 & 2 & 3 & 4 & 1 & 2 & 3 & 4 &  1 & 2 & 3 & 4 & 1 & 2 & 3 & 4 &


************************************
| (n) Ghost note
| h  Hammer-on
| /  Slide up
| \  Slide down
| s  Slap
| P  Pop
************************************

Almost there ...

Sign in to get your own page with links to favourite songs and more. You are just one click away...

Login with Facebook Login with Google