Log in

One click and you are in

Login with Facebook Login with Google

Why sign up and log in

Guitar Tabs Explorer
L.a.b bass tabs for In the air

Bass tabs

Tuning: Standard (E A D G)


Intro:
G|-----------5--7-/-9--7-5----5-7------------------------------------------------|
D|--------7---------------7------------5-----5------5-5--------------------------|
A|-5-*-5-----------------------------7-----7-----7-------8-7---------------------|
E|------------------------------5-5----------------------------------------------|

G|-----------5--7-/-9--7-5----5-7------------------------------------------------|
D|--------7---------------7------------5-----5------5-5--------------------------|
A|-5-*-5-----------------------------7-----7-----7-------8-7---------------------|
E|------------------------------5-5----------------------------------------------|
Verse 1:

G|-----------5--7-/-9--7-5----5-7------------------------------------------------|
D|--------7---------------7------------5-----5------5-5--------------------------|
A|-5-*-5-----------------------------7-----7-----7-------8-7---------------------|
E|------------------------------5-5----------------------------------------------|

G|-----------5--7-/-9--7-5----5-7------------------------------------------------|
D|--------7---------------7------------5-----5------5-5--------------------------|
A|-5-*-5-----------------------------7-----7-----7-------8-7---------------------|
E|------------------------------5-5----------------------------------------------|


Chorus:

G|-----------5--7-/-9--7-5----5-7------------------------------------------------|
D|--------7---------------7------------5-----5------5-5--------------------------|
A|-5-*-5-----------------------------7-----7-----7-------8-7---------------------|
E|------------------------------5-5----------------------------------------------|

G|-----------5--7-/-9--7-5----5-7------------------------------------------------|
D|--------7---------------7------------5-----5------5-5--------------------------|
A|-5-*-5-----------------------------7-----7-----7-------8-7---------------------|
E|------------------------------5-5----------------------------------------------|


Verse 2:

G|-----------5--7-/-9--7-5----5-7------------------------------------------------|
D|--------7---------------7------------5-----5------5-5--------------------------|
A|-5-*-5-----------------------------7-----7-----7-------8-7---------------------|
E|------------------------------5-5----------------------------------------------|

G|-----------5--7-/-9--7-5----5-7------------------------------------------------|
D|--------7---------------7------------5-----5------5-5--------------------------|
A|-5-*-5-----------------------------7-----7-----7-------8-7---------------------|
E|------------------------------5-5----------------------------------------------|


Chorus:

G|-----------5--7-/-9--7-5----5-7------------------------------------------------|
D|--------7---------------7------------5-----5------5-5--------------------------|
A|-5-*-5-----------------------------7-----7-----7-------8-7---------------------|
E|------------------------------5-5----------------------------------------------|

G|-----------5--7-/-9--7-5----5-7------------------------------------------------|
D|--------7---------------7------------5-----5------5-5--------------------------|
A|-5-*-5-----------------------------7-----7-----7-------8-7---------------------|
E|------------------------------5-5----------------------------------------------|




Bridge:

G|--------------------------5----------5-----------------------------------------------|
D|-----------------------7----------7---------------10-------------10------------------|
A|------------------5-5--------5-5-------5-7-8--8-8-----8-7---7-7------7-5-------------|
E|-1-1-1--3-3-3--3---------------------------------------------------------------------|

G|---------5-----------5---------------------------------------------------------|
D|-------7----------7------------------------------------------------------------|
A|--5-5--------5-5---------------------------------------------------------------|
E|-------------------------------------------------------------------------------|


Chorus:

G|-----------5--7-/-9--7-5----5-7------------------------------------------------|
D|--------7---------------7------------5-----5------5-5--------------------------|
A|-5-*-5-----------------------------7-----7-----7-------8-7---------------------|
E|------------------------------5-5----------------------------------------------|

G|-----------5--7-/-9--7-5----5-7------------------------------------------------|
D|--------7---------------7------------5-----5------5-5--------------------------|
A|-5-*-5-----------------------------7-----7-----7-------8-7---------------------|
E|------------------------------5-5----------------------------------------------|


Outro:

G|-----------5--7-/-9--7-5----5-7------------------------------------------------|
D|--------7---------------7------------5-----5------5-5--------------------------|
A|-5-*-5-----------------------------7-----7-----7-------8-7---------------------|
E|------------------------------5-5----------------------------------------------|

G|-----------5--7-/-9--7-5----5-7------------------------------------------------|
D|--------7---------------7------------5-----5------5-5--------------------------|
A|-5-*-5-----------------------------7-----7-----7-------8-7---------------------|
E|------------------------------5-5----------------------------------------------|

Almost there ...

Sign in to get your own page with links to favourite songs and more. You are just one click away...

Login with Facebook Login with Google