Fire Starter by L.A. Witch

Fire Starter tab by L.A. Witch

Guitar tabs

Key: E

🎸 Intro:
Listen to the song to hear the strumming pattern

  E   A   G   F
e|--0-----5-----3-----1------------------------------------------------------|
B|--0-----5-----3-----1------------------------------------------------------|
G|--1-----6-----4-----2------------------------------------------------------|
D|--2-----7-----5-----3------------------------------------------------------|
A|--2-----7-----5-----3------------------------------------------------------|
E|--0-----5-----3-----1------------------------------------------------------|



🎸 Verse:
Same as intro, with slightly different strumming.

  E   A   G   F
e|--0-----5-----3-----1------------------------------------------------------|
B|--0-----5-----3-----1------------------------------------------------------|
G|--1-----6-----4-----2------------------------------------------------------|
D|--2-----7-----5-----3------------------------------------------------------|
A|--2-----7-----5-----3------------------------------------------------------|
E|--0-----5-----3-----1------------------------------------------------------|

After the first 8 bars of vocals, there's an instrumental part with overdubs
that are too quiet for me to be able to tab out. The chords also change order
during this part, and switch back once the vocals come back.

  E   F   A   F
e|--0-----1-----5-----1------------------------------------------------------|
B|--0-----1-----5-----1------------------------------------------------------|
G|--1-----2-----6-----2------------------------------------------------------|
D|--2-----3-----7-----3------------------------------------------------------|
A|--2-----3-----7-----3------------------------------------------------------|
E|--0-----1-----5-----1------------------------------------------------------|

🎸 Chorus:

e|---------------------------------------------------------------------------|
B|---------------------------------------------------------------------------|
G|---------------------------------------------------------------------------|
D|---------------------------------------------------------------------------|
A|---------------------------------------------------------------------------|
E|--0---0/12--12~~~/---1---1/7h8p7--7~~~/------------------------------------|

x2

e|---------------------------------------------------------------------------|
B|-----------------15h17-----------------------------------------------------|
G|-----------14h16-------14h16-16b17-17-17-17-17-17--------------------------|
D|--12-12h14-----------------------------------------------------------------|
A|---------------------------------------------------------------------------|
E|---------------------------------------------------------------------------|

e|---------------------------------------------------------------------------|
B|---------------------------------------------------------------------------|
G|--------14-------14----------------16br-16-16------------------------------|
D|--14h15----14h15----15-12-15-14-14-----------------------------------------|
A|---------------------------------------------------------------------------|
E|---------------------------------------------------------------------------|

x2

🎸 Verse:

  E   A   G   F
e|--0-----5-----3-----1------------------------------------------------------|
B|--0-----5-----3-----1------------------------------------------------------|
G|--1-----6-----4-----2------------------------------------------------------|
D|--2-----7-----5-----3------------------------------------------------------|
A|--2-----7-----5-----3------------------------------------------------------|
E|--0-----5-----3-----1------------------------------------------------------|

Same thing here, the chords change during the instrumental part. They change
back again when the vocals come back.

  E   F   A   F
e|--0-----1-----5-----1------------------------------------------------------|
B|--0-----1-----5-----1------------------------------------------------------|
G|--1-----2-----6-----2------------------------------------------------------|
D|--2-----3-----7-----3------------------------------------------------------|
A|--2-----3-----7-----3------------------------------------------------------|
E|--0-----1-----5-----1------------------------------------------------------|


🎸 Chorus:

e|---------------------------------------------------------------------------|
B|---------------------------------------------------------------------------|
G|---------------------------------------------------------------------------|
D|---------------------------------------------------------------------------|
A|---------------------------------------------------------------------------|
E|--0---0/12--12~~~/---1---1/7h8p7--7~~~/------------------------------------|

x2

e|---------------------------------------------------------------------------|
B|-----------------15h17-----------------------------------------------------|
G|-----------14h16-------14h16-16b17-17-17-17-17-17--------------------------|
D|--12-12h14-----------------------------------------------------------------|
A|---------------------------------------------------------------------------|
E|---------------------------------------------------------------------------|

e|---------------------------------------------------------------------------|
B|---------------------------------------------------------------------------|
G|--------14-------14----------------16br-16-16------------------------------|
D|--14h15----14h15----15-12-15-14-14-----------------------------------------|
A|---------------------------------------------------------------------------|
E|---------------------------------------------------------------------------|

x2

🎸 Outro:

e|---------------------------------------------------------------------------|
B|---------------------------------------------------------------------------|
G|--17-17-16t16t16--17-16t16t16--17-16t16------------------------------------|
D|---------------------------------------------------------------------------|
A|---------------------------------------------------------------------------|
E|---------------------------------------------------------------------------|

x2

e|---------------------------------------------------------------------------|
B|---------------------------------------------------------------------------|
G|--19-16t16t16--19-16t16t16--19-16t16--19-16t16t16--16br--------------------|
D|---------------------------------------------------------------------------|
A|---------------------------------------------------------------------------|
E|---------------------------------------------------------------------------|

e|---------------------------------------------------------------------------|
B|---------------------------------------------------------------------------|
G|16-16-16t16t16--14--14-12-12t12-12h14p12--10--10-10/9-9--9-9--9-9/7-7h9----|
D|------------------------------------------------------------------------7/9|
A|---------------------------------------------------------------------------|
E|---------------------------------------------------------------------------|

e|---------------------------------------------------------------------------|
B|---------------------------------------------------------------------------|
G|---------------------------------------------------------------------------|
D|9/10-10/9-9-9--9-9/12-12/9-9-9br--9-9/14-14/9-9--9-9/7-7h9---9-------------|
A|-----------------------------------------------------------7-7-------------|
E|---------------------------------------------------------------------------|

x2


e|---------------------------------------------------------------------------|
B|---------------------------------------------------------------------------|
G|---------------------------------------------------------------------------|
D|--9/17~17~17~17~17~17~17~17~17~17~17~17~17~17~17~17~17~17~17~17~17~17~17~17|
A|---------------------------------------------------------------------------|
E|---------------------------------------------------------------------------|

Hit the last note 33(I think) times, then slowly press down
on the whammy bar on the last one, and bring it back up.

☠☠☠☠☠☠☠☠☠☠☠☠☠☠☠☠☠☠☠☠☠☠☠☠☠☠☠☠☠☠☠☠☠☠☠☠


| / Slide up
| ~ Vibrato
| h Hammer-on
| p Pull-off
| br Bend release
| t Tremolo pick


☠☠☠☠☠☠☠☠☠☠☠☠☠☠☠☠☠☠☠☠☠☠☠☠☠☠☠☠☠☠☠☠☠☠☠☠

Find guitar tabs and chords

A B C D E F G H I J K L M N O P Q R S T U V W X Y Z #