Log in

One click and you are in

Login with Facebook Login with Google

Why sign up and log in

Guitar Tabs Explorer
Kyuss bass tabs for Whitewater

Bass tabs with lyrics

Kyuss - Whitewater
Album : Sky valley
Bass player : Scott Reeder
Tab by: Hector Ordas (hordas@ozu.es)
This is a simple version, you gotta improvise, specially towards the end


Tune down to C



Intro
|------------------------------|
|------------------------------|
|------------------------------|
|-----5-----3-----5-----3------|


Fig 1
|-----------------------------------------------------------------|
|-------5-7---------5-7-----5-7---------5-7---------5-7-----------|
|---0-0-----0-0-0-0-----0-0-----3-5-0-0-----0-0-0-0-----0-0-3-----|
|-------------------------------------------------------------3---|


Fig 2
|-------------------------------5---------------------------------|
|-------5-7---------5-7-----5-7---7-----5-7---------5-7-----------|
|---0-0-----0-0-0-0-----0-0---------0-0-----0-0-0-0-----0-0-3-----|
|-------------------------------------------------------------3---|

Chorus (very very simplified)
|-----------------|
|-----------------|
|-----------------|
|--5-55--3--------|


Bridge
|----------|
|----------|
|----------|
|--3---5---|


Fig 3
|----9-7-5-4-----9-7 555///12---9-7-5-4-------------------|
|--7---------5-7--------------7---------5-77---555777--55-|
|-------------------------------------------777------77---|
|---------------------------------------------------------|


Fig 4 (continues...)
|--------------------55577788899.12.12.14.14.14
|---------------55777--------------------------
|-00033355566677-------------------------------
|----------------------------------------------


12.12.12.9998887755-----------------|
-------------------777555-----------|
-------------------------7776665533-|
------------------------------------|


Fig 5
|------------------|
|------------------|
|------------------|
|-5550003335550033-|





The song goes something like this :


Intro x2
(Fig.1-Fig.2)x4

Chorus x4
Fig.1 x1
(Fig.1-Fig.2)x2

Chorus x4

Bridge x4
Fig.3 many times, make some changes... until...
Fig.4 x2
Fig.5 many times...
Fig.3 a couple of times, ending with Fig.5


Probably there are some corrections to be done, but i^Òve done this without my bass or the song... all in my mind. Anyway, this is how I play it, sounds good to me... It^Òs no exact transcription of the original song.

Transcribed by Hector Ordas (hordas@ozu.es)
ⓘ Bass guitar tab for 'Whitewater' by Kyuss, a stoner rock band formed in 1990 from Palm Desert, California, USA. They retired in 1995. Kyuss was known for their trippy metal music.

Almost there ...

Sign in to get your own page with links to favourite songs and more. You are just one click away...

Login with Facebook Login with Google