Log in

One click and you are in

Login with Facebook Login with Google

Why sign up and log in

Guitar Tabs Explorer
Kyuss bass tabs for One inch man

Bass tabs

Kyuss - One inch man
Album : And the circus leaves town...
Bass Player : Scott Reeder
Tab by: Hector Ordas ([email protected])
Tune down to C


Verse
|-------11-9-----------------11-9-------------|
|-----------11-------------------11--------7--|
|--9--9-------9-999---7-9--9-------9-999-----9|
|------------------7-9------------------7-9---|


Chorus
|-------7-----------9-------10---|
|--------------------------------|
|-5-5-5---5-5-5-7-7---7-8-8----8-|
|--------------------------------|


Bridge
|---------------|
|---------------|
|----------3-2-0|
|02-2222-2------|

If you know the song, you know where it goes each part

Transcribed by Hector Ordas ([email protected])
ⓘ Bass guitar tab for 'One Inch Man' by Kyuss, a stoner rock band formed in 1990 from Palm Desert, California, USA. They retired in 1995. Kyuss was known for their trippy metal music.

Almost there ...

Sign in to get your own page with links to favourite songs and more. You are just one click away...

Login with Facebook Login with Google