Log in

One click and you are in

Login with Facebook Login with Google

Why sign up and log in

Guitar Tabs Explorer
Kyshera guitar chords for Lust

Guitar chords with lyrics

4/4

Intro:
   A chord diagramD9D9                       A chord diagramBb9Bb9               A chord diagramD9D9
   Clean
Eb|---------------------------------------------------------------------------|
Bb|---------------------------------------------------------------------------|
Gb|---------------------------------------------------------------------------|
Db|-------14----14--------------10---10-------------14----14------------------|
Ab|----12----12----12----12---8----8----8---8----12----12----12----12---------|
Db|-12----------------12----8-------------8---12----------------12------------|
    A chord diagramBb9Bb9                A chord diagramD9D9                      A chord diagramBb9Bb9
Eb|---------------------------------------------------------------------------|
Bb|---------------------------------------------------------------------------|
Gb|---------------------------------------------------------------------------|
Db|-----10---8---------------14----14--------------10---10--------------------|
Ab|---8----8---12---12----12----12----12----12---8----8----8---8--------------|
Db|-8-------------8----12----------------12----8-------------8----------------|


    Distortion on
    A chord diagramG9G9              A chord diagramEb9Eb9
Eb|---------------------------------------------------------------------------|
Bb|---------------------------------------------------------------------------|
Gb|---------------------------------------------------------------------------|
Db|-7-7-7-7-7-7-7-7-3-3-3-3-3-3-3-3-------------------------------------------|
Ab|-5-5-5-5-5-5-5-5-1-1-1-1-1-1-1-1-------------------------------------------|
Db|-5-5-5-5-5-5-5-5-1-1-1-1-1-1-1-1-------------------------------------------|


    Guitar 1
    A chord diagramD9D9               A chord diagramBb9Bb9               A chord diagramD9D9               A chord diagramBb9Bb9
Eb|---------------------------------------------------------------------------|
Bb|---------------------------------------------------------------------------|
Gb|---------------------------------------------------------------------------|
Db|--------14--14-14-10-10-10-10-10-10--------14--14-14-10-10-10-10-10-10-----|
Ab|--------12--12-12-8--8--8--8--8--8---------12--12-12-8--8--8--8--8--8------|
Db|-0--0-0-12--12-12-8--8--8--8--8--8--0--0-0-12--12-12-8--8--8--8--8--8------|

  |                                                                           |
  | Guitar 2                                                                  |
Eb|---------------------------------------------------------------------------|
Bb|---------------------------------------------------------------------------|
Gb|---------------------------------------------------------------------------|
Db|--------14--14-14-10-10-10-10-10-10--------14--14-14-10-10-10-10-10-10-----|
Ab|--------12--12-12-8--8--8--8--8--8---------12--12-12-8--8--8--8--8--8------|
Db|-0--0-0-12--12-12-8--8--8--8--8--8--0--0-0-12--12-12-8--8--8--8--8--8------|


   Guitar 1
            A chord diagramD9D9        A chord diagramBb9Bb9               A chord diagramG9G9                  A chord diagramEb9Eb9
Eb|---------------------------------------------------------------------------|
Bb|---------------------------------------------------------------------------|
Gb|-x-x-x-x-----------------------------14--14-14-14--14-14-10-10-10-10-10-10-|
Db|-x-x-x-x-14--14-14-10-10-10-10-10-10-12--12-12-12--12-12-8--8--8--8--8--8--|
Ab|-x-x-x-x-12--12-12-8--8--8--8--8--8--10--10-10-10--10-10-6--6--6--6--6--6--|
Db|-x-x-x-x-12--12-12-8--8--8--8--8--8----------------------------------------|

  |                                                                           |
  | Guitar 2                                                                  |
Eb|---------------------------------------------------------------------------|
Bb|---------------------------------------------------------------------------|
Gb|-x-x-x-x-------------------------------------------------------------------|
Db|-x-x-x-x-14--14-14-10-10-10-10-10-10-7---7--7--7--7--7---3--3--3--3--3--3--|
Ab|-x-x-x-x-12--12-12-8--8--8--8--8--8--5---5--5--5--5--5---1--1--1--1--1--1--|
Db|-x-x-x-x-12--12-12-8--8--8--8--8--8--5---5--5--5--5--5---1--1--1--1--1--1--|


    Guitar 1
    A chord diagramD9D9               A chord diagramBb9Bb9               A chord diagramD9D9               A chord diagramBb9Bb9
Eb|---------------------------------------------------------------------------|
Bb|---------------------------------------------------------------------------|
Gb|---------------------------------------------------------------------------|
Db|--------14--14-14-10-10-10-10-10-10--------14--14-14-10-10-10-10-10-10-----|
Ab|--------12--12-12-8--8--8--8--8--8---------12--12-12-8--8--8--8--8--8------|
Db|-0--0-0-12--12-12-8--8--8--8--8--8--0--0-0-12--12-12-8--8--8--8--8--8------|

  |                                                                           |
  | Guitar 2                                                                  |
Eb|---------------------------------------------------------------------------|
Bb|---------------------------------------------------------------------------|
Gb|---------------------------------------------------------------------------|
Db|--------14--14-14-10-10-10-10-10-10--------14--14-14-10-10-10-10-10-10-----|
Ab|--------12--12-12-8--8--8--8--8--8---------12--12-12-8--8--8--8--8--8------|
Db|-0--0-0-12--12-12-8--8--8--8--8--8--0--0-0-12--12-12-8--8--8--8--8--8------|


    Guitar 1
            A chord diagramD9D9        A chord diagramBb9Bb9               A chord diagramG9G9                  A chord diagramEb9Eb9
Eb|---------------------------------------------------------------------------|
Bb|---------------------------------------------------------------------------|
Gb|-x-x-x-x-----------------------------14--14-14-14--14-14-10-10-10-10-10-10-|
Db|-x-x-x-x-14--14-14-10-10-10-10-10-10-12--12-12-12--12-12-8--8--8--8--8--8--|
Ab|-x-x-x-x-12--12-12-8--8--8--8--8--8--10--10-10-10--10-10-6--6--6--6--6--6--|
Db|-x-x-x-x-12--12-12-8--8--8--8--8--8----------------------------------------|

  |                                                                           |
  | Guitar 2                                                                  |
Eb|---------------------------------------------------------------------------|
Bb|---------------------------------------------------------------------------|
Gb|-x-x-x-x-------------------------------------------------------------------|
Db|-x-x-x-x-14--14-14-10-10-10-10-10-10-7---7--7--7--7--7---3--3--3--3--3--3--|
Ab|-x-x-x-x-12--12-12-8--8--8--8--8--8--5---5--5--5--5--5---1--1--1--1--1--1--|
Db|-x-x-x-x-12--12-12-8--8--8--8--8--8--5---5--5--5--5--5---1--1--1--1--1--1--|


Verse: - "Your world confined"


   A chord diagramD9D9                       A chord diagramBb9Bb9               A chord diagramD9D9
   Clean
Eb|---------------------------------------------------------------------------|--
Bb|---------------------------------------------------------------------------|
Gb|---------------------------------------------------------------------------|
Db|-------14----14--------------10---10-------------14----14------------------|
Ab|----12----12----12----12---8----8----8---8----12----12----12----12---------|
Db|-12----------------12----8-------------8---12----------------12------------|


    A chord diagramBb9Bb9                A chord diagramD9D9                      A chord diagramBb9Bb9
Eb|---------------------------------------------------------------------------|
Bb|---------------------------------------------------------------------------|
Gb|---------------------------------------------------------------------------|
Db|-----10---8---------------14----14--------------10---10--------------------|
Ab|---8----8---12---12----12----12----12----12---8----8----8---8--------------|
Db|-8-------------8----12----------------12----8-------------8----------------|


    A chord diagramG9G9              A chord diagramEb9Eb9
Eb|---------------------------------------------------------------------------|
Bb|---------------------------------------------------------------------------|
Gb|---------------------------------------------------------------------------|
Db|-----7---7-----------3---3-------------------------------------------------|
Ab|---5---5---5---5---1---1---1---1-------------------------------------------|
Db|-5-----------5---1-----------1---------------------------------------------|


    A chord diagramD9D9                      A chord diagramBb9Bb9               A chord diagramD9D9
Eb|---------------------------------------------------------------------------|
Bb|---------------------------------------------------------------------------|
Gb|---------------------------------------------------------------------------|
Db|-------14----14--------------10---10-------------14----14------------------|
Ab|----12----12----12----12---8----8----8---8----12----12----12----12---------|
Db|-12----------------12----8-------------8---12----------------12------------|


    A chord diagramBb9Bb9                 A chord diagramD9D9                      A chord diagramBb9Bb9
Eb|---------------------------------------------------------------------------|
Bb|---------------------------------------------------------------------------|
Gb|---------------------------------------------------------------------------|
Db|-----10---8---------------14----14--------------10---10--------------------|
Ab|---8----8---12---12----12----12----12----12---8----8----8---8--------------|
Db|-8-------------8----12----------------12----8-------------8----------------|


    Distortion on
    A chord diagramG9G9              A chord diagramEb9Eb9
Eb|---------------------------------------------------------------------------|
Bb|---------------------------------------------------------------------------|
Gb|---------------------------------------------------------------------------|
Db|-7-7-7-7-7-7-7-7-3-3-3-3-3-3-3-3-------------------------------------------|
Ab|-5-5-5-5-5-5-5-5-1-1-1-1-1-1-1-1-------------------------------------------|
Db|-5-5-5-5-5-5-5-5-1-1-1-1-1-1-1-1-------------------------------------------|


Chorus: - "Trust"


    Guitar 1
    A chord diagramD9D9               A chord diagramBb9Bb9               A chord diagramD9D9               A chord diagramBb9Bb9
Eb|---------------------------------------------------------------------------|
Bb|---------------------------------------------------------------------------|
Gb|---------------------------------------------------------------------------|
Db|--------14--14-14-10-10-10-10-10-10--------14--14-14-10-10-10-10-10-10-----|
Ab|--------12--12-12-8--8--8--8--8--8---------12--12-12-8--8--8--8--8--8------|
Db|-0--0-0-12--12-12-8--8--8--8--8--8--0--0-0-12--12-12-8--8--8--8--8--8------|

  |                                                                           |
  | Guitar 2                                                                  |
Eb|---------------------------------------------------------------------------|
Bb|---------------------------------------------------------------------------|
Gb|---------------------------------------------------------------------------|
Db|--------14--14-14-10-10-10-10-10-10--------14--14-14-10-10-10-10-10-10-----|
Ab|--------12--12-12-8--8--8--8--8--8---------12--12-12-8--8--8--8--8--8------|
Db|-0--0-0-12--12-12-8--8--8--8--8--8--0--0-0-12--12-12-8--8--8--8--8--8------|


   Guitar 1
            A chord diagramD9D9        A chord diagramBb9Bb9               A chord diagramG9G9                  A chord diagramEb9Eb9
Eb|---------------------------------------------------------------------------|
Bb|---------------------------------------------------------------------------|
Gb|-x-x-x-x-----------------------------14--14-14-14--14-14-10-10-10-10-10-10-|
Db|-x-x-x-x-14--14-14-10-10-10-10-10-10-12--12-12-12--12-12-8--8--8--8--8--8--|
Ab|-x-x-x-x-12--12-12-8--8--8--8--8--8--10--10-10-10--10-10-6--6--6--6--6--6--|
Db|-x-x-x-x-12--12-12-8--8--8--8--8--8----------------------------------------|

  |                                                                           |
  | Guitar 2                                                                  |
Eb|---------------------------------------------------------------------------|
Bb|---------------------------------------------------------------------------|
Gb|-x-x-x-x-------------------------------------------------------------------|
Db|-x-x-x-x-14--14-14-10-10-10-10-10-10-7---7--7--7--7--7---3--3--3--3--3--3--|
Ab|-x-x-x-x-12--12-12-8--8--8--8--8--8--5---5--5--5--5--5---1--1--1--1--1--1--|
Db|-x-x-x-x-12--12-12-8--8--8--8--8--8--5---5--5--5--5--5---1--1--1--1--1--1--|


    Guitar 1
    A chord diagramD9D9               A chord diagramBb9Bb9               A chord diagramD9D9               A chord diagramBb9Bb9
Eb|---------------------------------------------------------------------------|
Bb|---------------------------------------------------------------------------|
Gb|---------------------------------------------------------------------------|
Db|--------14--14-14-10-10-10-10-10-10--------14--14-14-10-10-10-10-10-10-----|
Ab|--------12--12-12-8--8--8--8--8--8---------12--12-12-8--8--8--8--8--8------|
Db|-0--0-0-12--12-12-8--8--8--8--8--8--0--0-0-12--12-12-8--8--8--8--8--8------|

  |                                                                           |
  | Guitar 2                                                                  |
Eb|---------------------------------------------------------------------------|
Bb|---------------------------------------------------------------------------|
Gb|---------------------------------------------------------------------------|
Db|--------14--14-14-10-10-10-10-10-10--------14--14-14-10-10-10-10-10-10-----|
Ab|--------12--12-12-8--8--8--8--8--8---------12--12-12-8--8--8--8--8--8------|
Db|-0--0-0-12--12-12-8--8--8--8--8--8--0--0-0-12--12-12-8--8--8--8--8--8------|


    Guitar 1
            A chord diagramD9D9        A chord diagramBb9Bb9               A chord diagramG9G9                  A chord diagramEb9Eb9
Eb|---------------------------------------------------------------------------|
Bb|---------------------------------------------------------------------------|
Gb|-x-x-x-x-----------------------------14--14-14-14--14-14-10-10-10-10-10-10-|
Db|-x-x-x-x-14--14-14-10-10-10-10-10-10-12--12-12-12--12-12-8--8--8--8--8--8--|
Ab|-x-x-x-x-12--12-12-8--8--8--8--8--8--10--10-10-10--10-10-6--6--6--6--6--6--|
Db|-x-x-x-x-12--12-12-8--8--8--8--8--8----------------------------------------|

  |                                                                           |
  | Guitar 2                                                                  |
Eb|---------------------------------------------------------------------------|
Bb|---------------------------------------------------------------------------|
Gb|-x-x-x-x-------------------------------------------------------------------|
Db|-x-x-x-x-14--14-14-10-10-10-10-10-10-7---7--7--7--7--7---3--3--3--3--3--3--|
Ab|-x-x-x-x-12--12-12-8--8--8--8--8--8--5---5--5--5--5--5---1--1--1--1--1--1--|
Db|-x-x-x-x-12--12-12-8--8--8--8--8--8--5---5--5--5--5--5---1--1--1--1--1--1--|


Break:
   A chord diagramD9D9                       A chord diagramBb9Bb9               A chord diagramD9D9
   Clean
Eb|---------------------------------------------------------------------------|
Bb|---------------------------------------------------------------------------|
Gb|---------------------------------------------------------------------------|
Db|-------14----14--------------10---10-------------14----14------------------|
Ab|----12----12----12----12---8----8----8---8----12----12----12----12---------|
Db|-12----------------12----8-------------8---12----------------12------------|


    A chord diagramBb9Bb9               A chord diagramD9D9                      A chord diagramBb9Bb9
Eb|---------------------------------------------------------------------------|
Bb|---------------------------------------------------------------------------|
Gb|---------------------------------------------------------------------------|
Db|-----10---10-------------14----14--------------10---10---------------------|
Ab|---8----8----8---8----12----12----12----12---8----8----8---8---------------|
Db|-8-------------8---12----------------12----8-------------8-----------------|


    A chord diagramG9G9              A chord diagramEb9Eb9
Eb|---------------------------------------------------------------------------|
Bb|---------------------------------------------------------------------------|
Gb|-----------------------0---------------------------------------------------|
Db|-----7---7-----------3----3------------------------------------------------|
Ab|---5---5---5---5---1--------1----------------------------------------------|
Db|-5-----------5---1---------------------------------------------------------|


Verse 2: - "Your fickle worship"


   A chord diagramD9D9                       A chord diagramBb9Bb9               A chord diagramD9D9
   Clean
Eb|---------------------------------------------------------------------------|--
Bb|---------------------------------------------------------------------------|
Gb|---------------------------------------------------------------------------|
Db|-------14----14--------------10---10-------------14----14------------------|
Ab|----12----12----12----12---8----8----8---8----12----12----12----12---------|
Db|-12----------------12----8-------------8---12----------------12------------|


    A chord diagramBb9Bb9                A chord diagramD9D9                      A chord diagramBb9Bb9
Eb|---------------------------------------------------------------------------|
Bb|---------------------------------------------------------------------------|
Gb|---------------------------------------------------------------------------|
Db|-----10---8---------------14----14--------------10---10--------------------|
Ab|---8----8---12---12----12----12----12----12---8----8----8---8--------------|
Db|-8-------------8----12----------------12----8-------------8----------------|


    A chord diagramG9G9              A chord diagramEb9Eb9
Eb|---------------------------------------------------------------------------|
Bb|---------------------------------------------------------------------------|
Gb|---------------------------------------------------------------------------|
Db|-----7---7-----------3---3-------------------------------------------------|
Ab|---5---5---5---5---1---1---1---1-------------------------------------------|
Db|-5-----------5---1-----------1---------------------------------------------|


    A chord diagramD9D9                      A chord diagramBb9Bb9               A chord diagramD9D9
Eb|---------------------------------------------------------------------------|
Bb|---------------------------------------------------------------------------|
Gb|---------------------------------------------------------------------------|
Db|-------14----14--------------10---10-------------14----14------------------|
Ab|----12----12----12----12---8----8----8---8----12----12----12----12---------|
Db|-12----------------12----8-------------8---12----------------12------------|


    A chord diagramBb9Bb9                A chord diagramD9D9                      A chord diagramBb9Bb9
Eb|---------------------------------------------------------------------------|
Bb|---------------------------------------------------------------------------|
Gb|---------------------------------------------------------------------------|
Db|-----10---8---------------14----14--------------10---10--------------------|
Ab|---8----8---12---12----12----12----12----12---8----8----8---8--------------|
Db|-8-------------8----12----------------12----8-------------8----------------|


    Distortion on
    A chord diagramG9G9              A chord diagramEb9Eb9
Eb|---------------------------------------------------------------------------|
Bb|---------------------------------------------------------------------------|
Gb|---------------------------------------------------------------------------|
Db|-7-7-7-7-7-7-7-7-3-3-3-3-3-3-3-3-------------------------------------------|
Ab|-5-5-5-5-5-5-5-5-1-1-1-1-1-1-1-1-------------------------------------------|
Db|-5-5-5-5-5-5-5-5-1-1-1-1-1-1-1-1-------------------------------------------|


Chorus 2: - "Trust"


    Guitar 1
    A chord diagramD9D9               A chord diagramBb9Bb9               A chord diagramD9D9               A chord diagramBb9Bb9
Eb|---------------------------------------------------------------------------|
Bb|---------------------------------------------------------------------------|
Gb|---------------------------------------------------------------------------|
Db|--------14--14-14-10-10-10-10-10-10--------14--14-14-10-10-10-10-10-10-----|
Ab|--------12--12-12-8--8--8--8--8--8---------12--12-12-8--8--8--8--8--8------|
Db|-0--0-0-12--12-12-8--8--8--8--8--8--0--0-0-12--12-12-8--8--8--8--8--8------|

  |                                                                           |
  | Guitar 2                                                                  |
Eb|---------------------------------------------------------------------------|
Bb|---------------------------------------------------------------------------|
Gb|---------------------------------------------------------------------------|
Db|--------14--14-14-10-10-10-10-10-10--------14--14-14-10-10-10-10-10-10-----|
Ab|--------12--12-12-8--8--8--8--8--8---------12--12-12-8--8--8--8--8--8------|
Db|-0--0-0-12--12-12-8--8--8--8--8--8--0--0-0-12--12-12-8--8--8--8--8--8------|


   Guitar 1
            A chord diagramD9D9        A chord diagramBb9Bb9               A chord diagramG9G9                  A chord diagramEb9Eb9
Eb|---------------------------------------------------------------------------|
Bb|---------------------------------------------------------------------------|
Gb|-x-x-x-x-----------------------------14--14-14-14--14-14-10-10-10-10-10-10-|
Db|-x-x-x-x-14--14-14-10-10-10-10-10-10-12--12-12-12--12-12-8--8--8--8--8--8--|
Ab|-x-x-x-x-12--12-12-8--8--8--8--8--8--10--10-10-10--10-10-6--6--6--6--6--6--|
Db|-x-x-x-x-12--12-12-8--8--8--8--8--8----------------------------------------|

  |                                                                           |
  | Guitar 2                                                                  |
Eb|---------------------------------------------------------------------------|
Bb|---------------------------------------------------------------------------|
Gb|-x-x-x-x-------------------------------------------------------------------|
Db|-x-x-x-x-14--14-14-10-10-10-10-10-10-7---7--7--7--7--7---3--3--3--3--3--3--|
Ab|-x-x-x-x-12--12-12-8--8--8--8--8--8--5---5--5--5--5--5---1--1--1--1--1--1--|
Db|-x-x-x-x-12--12-12-8--8--8--8--8--8--5---5--5--5--5--5---1--1--1--1--1--1--|


    Guitar 1
    A chord diagramD9D9               A chord diagramBb9Bb9               A chord diagramD9D9               A chord diagramBb9Bb9
Eb|---------------------------------------------------------------------------|
Bb|---------------------------------------------------------------------------|
Gb|---------------------------------------------------------------------------|
Db|--------14--14-14-10-10-10-10-10-10--------14--14-14-10-10-10-10-10-10-----|
Ab|--------12--12-12-8--8--8--8--8--8---------12--12-12-8--8--8--8--8--8------|
Db|-0--0-0-12--12-12-8--8--8--8--8--8--0--0-0-12--12-12-8--8--8--8--8--8------|

  |                                                                           |
  | Guitar 2                                                                  |
Eb|---------------------------------------------------------------------------|
Bb|---------------------------------------------------------------------------|
Gb|---------------------------------------------------------------------------|
Db|--------14--14-14-10-10-10-10-10-10--------14--14-14-10-10-10-10-10-10-----|
Ab|--------12--12-12-8--8--8--8--8--8---------12--12-12-8--8--8--8--8--8------|
Db|-0--0-0-12--12-12-8--8--8--8--8--8--0--0-0-12--12-12-8--8--8--8--8--8------|


    Guitar 1
            A chord diagramD9D9        A chord diagramBb9Bb9               A chord diagramG9G9                  A chord diagramEb9Eb9
Eb|---------------------------------------------------------------------------|
Bb|---------------------------------------------------------------------------|
Gb|-x-x-x-x-----------------------------14--14-14-14--14-14-10-10-10-10-10-10-|
Db|-x-x-x-x-14--14-14-10-10-10-10-10-10-12--12-12-12--12-12-8--8--8--8--8--8--|
Ab|-x-x-x-x-12--12-12-8--8--8--8--8--8--10--10-10-10--10-10-6--6--6--6--6--6--|
Db|-x-x-x-x-12--12-12-8--8--8--8--8--8----------------------------------------|

  |                                                                           |
  | Guitar 2                                                                  |
Eb|---------------------------------------------------------------------------|
Bb|---------------------------------------------------------------------------|
Gb|-x-x-x-x-------------------------------------------------------------------|
Db|-x-x-x-x-14--14-14-10-10-10-10-10-10-7---7--7--7--7--7---3--3--3--3--3--3--|
Ab|-x-x-x-x-12--12-12-8--8--8--8--8--8--5---5--5--5--5--5---1--1--1--1--1--1--|
Db|-x-x-x-x-12--12-12-8--8--8--8--8--8--5---5--5--5--5--5---1--1--1--1--1--1--|


Bridge:
    A chord diagramD9D9              A chord diagramF9F9                    A chord diagramBb9Bb9
Eb|---------------------------------------------------------------------------|--|
Bb|---------------------------------------------------------------------------|  |
Gb|-----9---9------------12----12---------------17----17----------------------|  |
Db|---7---7---7---7---10----10----10---10----15----15----15----15-------------|  |
Ab|-5-----------5---8----------------8----13----------------13----------------|  |
Db|---------------------------------------------------------------------------|  |
                                                                                 |

    A chord diagramGmadd9Gmadd9                     A chord diagramD9D9              A chord diagramF9F9                                   |
Eb|---------------------------------------------------------------------------|  |
Bb|----------13---------------------------------------------------------------|  |
Gb|-------14----14----14--------9---9------------12----12---------------------|  | x2
Db|----12----------12----12---7---7---7---7---10----10----10---10-------------|  |
Ab|-10----------------------5-----------5---8----------------8----------------|  |
Db|---------------------------------------------------------------------------|  |
                                                                                 |

    A chord diagramBbadd9Bbadd9                                                                       |
Eb|---------------------------------------------------------------------------|  |
Bb|----------15------15-------------15-------15-------------------------------|  |
Gb|-------17---17-------17-------17----17-------17----------------------------|  |
Db|----15---------15----------15----------15----------------------------------|  |
Ab|-13---------------------13-------------------------------------------------|  |
Db|---------------------------------------------------------------------------|--|


Chrous 3: - "Trust"
   A chord diagramD9D9                       A chord diagramBb9Bb9               A chord diagramD9D9
   Clean
Eb|---------------------------------------------------------------------------|
Bb|---------------------------------------------------------------------------|
Gb|---------------------------------------------------------------------------|
Db|-------14----14--------------10---10-------------14----14------------------|
Ab|----12----12----12----12---8----8----8---8----12----12----12----12---------|
Db|-12----------------12----8-------------8---12----------------12------------|


    A chord diagramBb9Bb9
Eb|---------------------------------------------------------------------------|
Bb|---------------------------------------------------------------------------|
Gb|---------------------------------------------------------------------------|
Db|-----10---8----------------------------------------------------------------|
Ab|---8----8---12---12--------------------------------------------------------|
Db|-8-------------8-----------------------------------------------------------|


    Distortion on
    Guitar 1
            A chord diagramD9D9        A chord diagramBb9Bb9               A chord diagramG9G9                  A chord diagramEb9Eb9
Eb|---------------------------------------------------------------------------|
Bb|---------------------------------------------------------------------------|
Gb|-x-x-x-x-----------------------------14--14-14-14--14-14-10-10-10-10-10-10-|
Db|-x-x-x-x-14--14-14-10-10-10-10-10-10-12--12-12-12--12-12-8--8--8--8--8--8--|
Ab|-x-x-x-x-12--12-12-8--8--8--8--8--8--10--10-10-10--10-10-6--6--6--6--6--6--|
Db|-x-x-x-x-12--12-12-8--8--8--8--8--8----------------------------------------|

  |                                                                           |
  | Guitar 2                                                                  |
Eb|---------------------------------------------------------------------------|
Bb|---------------------------------------------------------------------------|
Gb|-x-x-x-x-------------------------------------------------------------------|
Db|-x-x-x-x-14--14-14-10-10-10-10-10-10-7---7--7--7--7--7---3--3--3--3--3--3--|
Ab|-x-x-x-x-12--12-12-8--8--8--8--8--8--5---5--5--5--5--5---1--1--1--1--1--1--|
Db|-x-x-x-x-12--12-12-8--8--8--8--8--8--5---5--5--5--5--5---1--1--1--1--1--1--|


    Guitar 1
    A chord diagramD9D9               A chord diagramBb9Bb9               A chord diagramD9D9               A chord diagramBb9Bb9
Eb|---------------------------------------------------------------------------|
Bb|---------------------------------------------------------------------------|
Gb|---------------------------------------------------------------------------|
Db|--------14--14-14-10-10-10-10-10-10--------14--14-14-10-10-10-10-10-10-----|
Ab|--------12--12-12-8--8--8--8--8--8---------12--12-12-8--8--8--8--8--8------|
Db|-0--0-0-12--12-12-8--8--8--8--8--8--0--0-0-12--12-12-8--8--8--8--8--8------|

  |                                                                           |
  | Guitar 2                                                                  |
Eb|---------------------------------------------------------------------------|
Bb|---------------------------------------------------------------------------|
Gb|---------------------------------------------------------------------------|
Db|--------14--14-14-10-10-10-10-10-10--------14--14-14-10-10-10-10-10-10-----|
Ab|--------12--12-12-8--8--8--8--8--8---------12--12-12-8--8--8--8--8--8------|
Db|-0--0-0-12--12-12-8--8--8--8--8--8--0--0-0-12--12-12-8--8--8--8--8--8------|


    Guitar 1
            A chord diagramD9D9        A chord diagramBb9Bb9               A chord diagramG9G9                  A chord diagramEb9Eb9
Eb|---------------------------------------------------------------------------|
Bb|---------------------------------------------------------------------------|
Gb|-x-x-x-x-----------------------------14--14-14-14--14-14-10-10-10-10-10-10-|
Db|-x-x-x-x-14--14-14-10-10-10-10-10-10-12--12-12-12--12-12-8--8--8--8--8--8--|
Ab|-x-x-x-x-12--12-12-8--8--8--8--8--8--10--10-10-10--10-10-6--6--6--6--6--6--|
Db|-x-x-x-x-12--12-12-8--8--8--8--8--8----------------------------------------|

  |                                                                           |
  | Guitar 2                                                                  |
Eb|---------------------------------------------------------------------------|
Bb|---------------------------------------------------------------------------|
Gb|-x-x-x-x-------------------------------------------------------------------|
Db|-x-x-x-x-14--14-14-10-10-10-10-10-10-7---7--7--7--7--7---3--3--3--3--3--3--|
Ab|-x-x-x-x-12--12-12-8--8--8--8--8--8--5---5--5--5--5--5---1--1--1--1--1--1--|
Db|-x-x-x-x-12--12-12-8--8--8--8--8--8--5---5--5--5--5--5---1--1--1--1--1--1--|


Chorus 4:


    Guitar 1
    A chord diagramD9D9               A chord diagramBb9Bb9               A chord diagramD9D9               A chord diagramBb9Bb9
Eb|---------------------------------------------------------------------------|
Bb|---------------------------------------------------------------------------|
Gb|---------------------------------------------------------------------------|
Db|--------14--14-14-10-10-10-10-10-10--------14--14-14-10-10-10-10-10-10-----|
Ab|--------12--12-12-8--8--8--8--8--8---------12--12-12-8--8--8--8--8--8------|
Db|-0--0-0-12--12-12-8--8--8--8--8--8--0--0-0-12--12-12-8--8--8--8--8--8------|

  |                                                                           |
  | Guitar 2                                                                  |
Eb|---------------------------------------------------------------------------|
Bb|---------------------------------------------------------------------------|
Gb|---------------------------------------------------------------------------|
Db|--------14--14-14-10-10-10-10-10-10--------14--14-14-10-10-10-10-10-10-----|
Ab|--------12--12-12-8--8--8--8--8--8---------12--12-12-8--8--8--8--8--8------|
Db|-0--0-0-12--12-12-8--8--8--8--8--8--0--0-0-12--12-12-8--8--8--8--8--8------|


    Guitar 1
            A chord diagramD9D9        A chord diagramBb9Bb9               A chord diagramG9G9                  A chord diagramEb9Eb9
Eb|---------------------------------------------------------------------------|
Bb|---------------------------------------------------------------------------|
Gb|-x-x-x-x-----------------------------14--14-14-14--14-14-10-10-10-10-10-10-|
Db|-x-x-x-x-14--14-14-10-10-10-10-10-10-12--12-12-12--12-12-8--8--8--8--8--8--|
Ab|-x-x-x-x-12--12-12-8--8--8--8--8--8--10--10-10-10--10-10-6--6--6--6--6--6--|
Db|-x-x-x-x-12--12-12-8--8--8--8--8--8----------------------------------------|

  |                                                                           |
  | Guitar 2                                                                  |
Eb|---------------------------------------------------------------------------|
Bb|---------------------------------------------------------------------------|
Gb|-x-x-x-x-------------------------------------------------------------------|
Db|-x-x-x-x-14--14-14-10-10-10-10-10-10-7---7--7--7--7--7---3--3--3--3--3--3--|
Ab|-x-x-x-x-12--12-12-8--8--8--8--8--8--5---5--5--5--5--5---1--1--1--1--1--1--|
Db|-x-x-x-x-12--12-12-8--8--8--8--8--8--5---5--5--5--5--5---1--1--1--1--1--1--|


    Guitar 1
    A chord diagramD9D9               A chord diagramBb9Bb9               A chord diagramD9D9               A chord diagramBb9Bb9
Eb|---------------------------------------------------------------------------|
Bb|---------------------------------------------------------------------------|
Gb|---------------------------------------------------------------------------|
Db|--------14--14-14-10-10-10-10-10-10--------14--14-14-10-10-10-10-10-10-----|
Ab|--------12--12-12-8--8--8--8--8--8---------12--12-12-8--8--8--8--8--8------|
Db|-0--0-0-12--12-12-8--8--8--8--8--8--0--0-0-12--12-12-8--8--8--8--8--8------|

  |                                                                           |
  | Guitar 2                                                                  |
Eb|---------------------------------------------------------------------------|
Bb|---------------------------------------------------------------------------|
Gb|---------------------------------------------------------------------------|
Db|--------14--14-14-10-10-10-10-10-10--------14--14-14-10-10-10-10-10-10-----|
Ab|--------12--12-12-8--8--8--8--8--8---------12--12-12-8--8--8--8--8--8------|
Db|-0--0-0-12--12-12-8--8--8--8--8--8--0--0-0-12--12-12-8--8--8--8--8--8------|


    Guitar 1
            A chord diagramD9D9        A chord diagramBb9Bb9               A chord diagramG9G9                  A chord diagramEb9Eb9
Eb|---------------------------------------------------------------------------|
Bb|---------------------------------------------------------------------------|
Gb|-x-x-x-x-----------------------------14--14-14-14--14-14-10-10-10-10-10-10-|
Db|-x-x-x-x-14--14-14-10-10-10-10-10-10-12--12-12-12--12-12-8--8--8--8--8--8--|
Ab|-x-x-x-x-12--12-12-8--8--8--8--8--8--10--10-10-10--10-10-6--6--6--6--6--6--|
Db|-x-x-x-x-12--12-12-8--8--8--8--8--8----------------------------------------|

  |                                                                           |
  | Guitar 2                                                                  |
Eb|---------------------------------------------------------------------------|
Bb|---------------------------------------------------------------------------|
Gb|-x-x-x-x-------------------------------------------------------------------|
Db|-x-x-x-x-14--14-14-10-10-10-10-10-10-7---7--7--7--7--7---3--3--3--3--3--3--|
Ab|-x-x-x-x-12--12-12-8--8--8--8--8--8--5---5--5--5--5--5---1--1--1--1--1--1--|
Db|-x-x-x-x-12--12-12-8--8--8--8--8--8--5---5--5--5--5--5---1--1--1--1--1--1--|


************************************

| x   Dead note

************************************

Almost there ...

Sign in to get your own page with links to favourite songs and more. You are just one click away...

Login with Facebook Login with Google