Log in

One click and you are in

Login with Facebook Login with Google

Why sign up and log in

Guitar Tabs Explorer
Kyshera guitar chords for Full circle

Guitar chords with lyrics

6/8
   A chord diagramA majorA section: - "So I have come full circle"
   Drums and Bass for 10 bars
C#|---------------------------------------------------------------------------|
A chord diagramBB |---------------------------------------------------------------------------|
F#|---------------------------------------------------------------------------|
A chord diagramBB |---------------------------------------------------------------------------|
F#|---------------------------------------------------------------------------|
A chord diagramBB |---------------------------------------------------------------------12\---|
   A chord diagramBB section: - "What did it really cost me"
C#|---------------------------------------------------------------------------|}
A chord diagramBB |---------------------------------------------------------------------------| }
F#|---------------------------------------------------------------------------|  } x2
A chord diagramBB |---------------10\7-------------------------10\7---------------------------|  }
F#|--------------------8h10p7-----------------------8h10p7--------------------| }
A chord diagramBB |-0h12-0-12--12-------------10-0h12-0-12--12-------------10-----------------|}


C#|---------------------------------------------------------------------------|
A chord diagramBB |---------------------------------------------------------------------------|
F#|---------------------------------------------------------------------------|
A chord diagramBB |------------10\7----------------------10\7---------------------------------|
F#|-----------------8h10p7--------------------8h10p7--------------------------|
A chord diagramBB |-0h8-0-8--8-------------10-0h8-0-8--8-------------10-----------------------|


C#|---------------------------------------------------------------------------|
A chord diagramBB |---------------------------------------------------------------------------|
F#|---------------------------------------------------------------------------|
A chord diagramBB |---------------10\7-------------------------10\7---------------------------|
F#|--------------------8h10p7-----------------------8h10p7--------------------|
A chord diagramBB |-0h12-0-12--12-------------10-0h12-0-12--12-------------10-----------------|

   4/4
   A chord diagramC majorC section: "Look in to the eyes"
C#|---------------------------------------------------------------------------|}
A chord diagramBB |---------------------------------------------------------------------------| }
F#|---------------------------------------------------------------------------|  } x4
A chord diagramBB |-------------------------------------------------10\9-10\9-----------------|  }
F#|-------------3-5-------------3-5-------------3-5---------------------------| }
A chord diagramBB |-0-0-3-4-5-6-----0-0-3-4-5-6-----0-0-3-4-5-6-----10\9-10\9-----------------|}


                                                "And by showing you the dark
                                                   May I give you the light"
C#|---------------------------------------------------------------------------|
A chord diagramBB |---------------------------------------------------------------------------|
F#|---------------------------------------------------------------------------|
A chord diagramBB |-9\7-9\7--9\7-9\7--3-0-------------0-------------------------------------0-|
F#|-----------------------0-------3-2-0-------------------------------------0-|
A chord diagramBB |-9\7-9\7--9\7-9\7--------0-3-4-----0-------------------------------------0-|


**SONG CHANGES TO STANDARD TUNING**
   6/8              6/8             6/8            5/8
   A chord diagramD MajorD section:
e |---------------------------------------------------------------------------|}
A chord diagramBB |---------------------------------------------------------------------------| }
A chord diagramG MajorG |---------------3---------------3---------------3---------------------------|  } x6
A chord diagramD MajorD |-----5---3-3h5-------5---3-3h5-------5---3-3h5-------5-5-3-----------------|  }
A chord diagramA majorA |-3-3---3---------3-3---3-----------------------------------6---------------| }
A chord diagramE MajorE |---------------------------------4-4---4---------6-6-----------------------|}

  6/8
  A chord diagramE MajorE section: -"All that you see"
   Guitar 1 strums clean chords
   Guitar 2 picks the arpeggio


    A chord diagramC minorCm                            A chord diagramD7/F#D7/F#
e |---------------------------------------------------------------------------|}
A chord diagramBB |---------8--------------8-------------7-------------7----------------------| }
A chord diagramG MajorG |-----------8--------------8---------7---7---------7---7--------------------|  }
A chord diagramD MajorD |------10-----10------10-----10---10-------10---10-------10-----------------|   }
A chord diagramA majorA |---10-------------10-----------9-------------9-----------------------------|    }
A chord diagramE MajorE |-8--------------8----------------------------------------------------------|     }

                                                                                     } x4
    A chord diagramF minorFm                              A chord diagramC minorCm             A chord diagramG7G7                                }
e |---------------------------------------------------------------------------|     }
A chord diagramBB |---------9---------------9---------------8--------------8------------------|    }
A chord diagramG MajorG |------10---10---------10---10--------------8---------10---10---------------|   }
A chord diagramD MajorD |---10---------10---10---------10------10-----10----9---------9-------------|  }
A chord diagramA majorA |-8---------------8-----------------10-----------10-------------------------| }
A chord diagramE MajorE |---------------------------------8-----------------------------------------|}


    "Will fade and turn to dust"
    A chord diagramG#add9G#add9                  A chord diagramBbadd9Bbadd9
e |---------------------------------------------------------------------------|
A chord diagramBB |---------------------------------------------------------------------------|
A chord diagramG MajorG |-------5-----------5------------7-------------7----------------------------|
A chord diagramD MajorD |-----8---8-------8---8-------10---10-------10---10-------------------------|
A chord diagramA majorA |---6-------6---6-------6---8---------8---8---------8-----------------------|
A chord diagramE MajorE |-4-----------4-----------6-------------6-----------------------------------|


    A chord diagramG#add9G#add9                  A chord diagramBbadd9Bbadd9 - gradually slowing down
e |---------------------------------------------------------------------------|
A chord diagramBB |---------------------------------------------------------------------------|
A chord diagramG MajorG |-------5-----------5------------7-------------7----------------------------|
A chord diagramD MajorD |-----8---8-------8---8-------10---10-------10---10-------------------------|
A chord diagramA majorA |---6-------6---6-------6---8---------8---8---------8-----------------------|
A chord diagramE MajorE |-4-----------4-----------6-------------6-------------6---------------------|

  A chord diagramFF section
**TUNING CHANGES BACK TO DROP B**


C#|--------------------------|-------------------------------------------------|
A chord diagramBB |--------------------------|-------------------------------------------------|
F#|--------------------------|-------------------------------------------------|
A chord diagramBB |--------------------------|-------------------------------------------------|
F#|--------------------------|-------------------------------------------------|
A chord diagramBB |-10-7-0-7-5-0-5-0-3-0-3-5-|-10-7-0-7-5-0-5-0-3-0-3-5------------------------|


C#|--------------------------|-------------------------------------------------|
A chord diagramBB |--------------------------|-------------------------------------------------|
F#|--------------------------|-------------------------------------------------|
A chord diagramBB |--------------------------|--------------------------0--0-------------------|
F#|--------------------------|--------------------------0--0-------------------|
A chord diagramBB |-10-7-0-7-5-0-5-0-3-0-3-5-|-10-7-0-7-5-0-5-0-3-0-3-5-0--0-------------------|


************************************
| h   Hammer-on
| p   Pull-off
| /   Slide up
| \   Slide down
| ~   Vibrato

************************************

Other versions of Full Circle

Full circleTabs

Almost there ...

Sign in to get your own page with links to favourite songs and more. You are just one click away...

Login with Facebook Login with Google