Log in

One click and you are in

Login with Facebook Login with Google

Why sign up and log in

Guitar Tabs Explorer
Kyshera guitar chords for Ants

Guitar chords with lyrics

Intro:
   Just Piano
   Chords just for reference
    A chord diagramF#F#    Bm/F#    A chord diagramF#F#    Bm/F#
Eb|-2-----2--------2-----2----------------------------------------------------|
Bb|-2-----3--------2-----3----------------------------------------------------|
Gb|-3-----4--------3-----4----------------------------------------------------|
Db|-4-----4--------4-----4----------------------------------------------------|
Ab|-4--------------4----------------------------------------------------------|
Eb|-2-----2--------2-----2----------------------------------------------------|
Verse 1: - "Economies, are not forces of nature"


   Just Piano
   Chords just for reference
    A chord diagramF#F#    Bm/F#    A chord diagramF#F#    Bm/F#    A chord diagramF#F#    Bm/F#    A chord diagramF#F#    Bm/F#
Eb|-2-----2--------2-----2--------2-----2--------2-----2----------------------|
Bb|-2-----3--------2-----3--------2-----3--------2-----3----------------------|
Gb|-3-----4--------3-----4--------3-----4--------3-----4----------------------|
Db|-4-----4--------4-----4--------4-----4--------4-----4----------------------|
Ab|-4--------------4--------------4--------------4----------------------------|
Eb|-2-----2--------2-----2--------2-----2--------2-----2----------------------|


    A chord diagramF#F#    Bm/F#    A chord diagramF#F#    Bm/F#
Eb|-2-----2--------2-----2----------------------------------------------------|
Bb|-2-----3--------2-----3----------------------------------------------------|
Gb|-3-----4--------3-----4----------------------------------------------------|
Db|-4-----4--------4-----4----------------------------------------------------|
Ab|-4--------------4----------------------------------------------------------|
Eb|-2-----2--------2-----2----------------------------------------------------|


Verse 2: - "Politics"

   Just Piano
   Chords just for reference
    A chord diagramF#F#    Bm/F#    A chord diagramF#F#    Bm/F#    A chord diagramF#F#    Bm/F#    A chord diagramF#F#    Bm/F#
Eb|-2-----2--------2-----2--------2-----2--------2-----2----------------------|
Bb|-2-----3--------2-----3--------2-----3--------2-----3----------------------|
Gb|-3-----4--------3-----4--------3-----4--------3-----4----------------------|
Db|-4-----4--------4-----4--------4-----4--------4-----4----------------------|
Ab|-4--------------4--------------4--------------4----------------------------|
Eb|-2-----2--------2-----2--------2-----2--------2-----2----------------------|


Chorus 1: - "It's five to one"


    Played with Bottle Neck
        A chord diagramE MajorE                 A chord diagramB minorBm
Eb|---------------------------------------------------------------------------|
Bb|----/9----9---/12\--9\--7----7--/10-9-7------------------------------------|
Gb|-------9---9------/9--/7--7---7--------7-----------------------------------|
Db|-4/------9--9---------------7-----------7----------------------------------|
Ab|---------------------------------------------------------------------------|
Eb|---------------------------------------------------------------------------|


    A chord diagramE MajorE                         A chord diagramB minorBm
Eb|--------------12----12-----------------------------------------------------|
Bb|-/9----9---/12---/12---12\-7-----7---9\7--9\7--9\--------------------------|
Gb|----9---9--------------------7----7-----7----7-----------------------------|
Db|------9--9---------------------7---7---------------------------------------|
Ab|---------------------------------------------------------------------------|
Eb|---------------------------------------------------------------------------|


    A chord diagramE MajorE                    A chord diagramB minorBm
                         Slow slide down neck
Eb|---------------------------------------------------------------------------|
Bb|-/9----9---/12----9--------------------------------------------------------|
Gb|----9---9-----13\--9\-7\----------7\---------------------------------------|
Db|------9--9-----------------------------------------------------------------|
Ab|---------------------------------------------------------------------------|
Eb|---------------------------------------------------------------------------|


    A chord diagramE MajorE                         A chord diagramB minorBm
Eb|--------------12----12-----------------------------------------------------|
Bb|-/9----9---/12---/12---12\-7\5--7\5--7\5--7\5--7\5-------------------------|
Gb|----9---9---------------------7----7----7----7----7------------------------|
Db|------9--9-----------------------------------------------------------------|
Ab|---------------------------------------------------------------------------|
Eb|---------------------------------------------------------------------------|


    A chord diagramG minorGm              A chord diagramB minorBm              A chord diagramF minorFm              A chord diagramB minorBm
Eb|---------------------------------------------------------------------------|
Bb|---------3---------------3---------------1---------------3-----------------|
Gb|-----3-------3-------4-------4-------1-------1-------4-------4-------------|
Db|---5---5---5---5---4---4---4---4---3---3---3---3---4---4---4---4-----------|
Ab|-----------------2-------------------------------2-------------------------|
Eb|-3-------------------------------1-----------------------------------------|


Break: - Just Piano
          Chord as reference
    A chord diagramF#F#
Eb|-2-------------------------------------------------------------------------|
Bb|-2-------------------------------------------------------------------------|
Gb|-3-------------------------------------------------------------------------|
Db|-4-------------------------------------------------------------------------|
Ab|-4-------------------------------------------------------------------------|
Eb|-2-------------------------------------------------------------------------|


Verse 3: - "Everything our masters tell us is a lie"


   Just Piano
   Chords just for reference
    A chord diagramF#F#    Bm/F#    A chord diagramF#F#    Bm/F#    A chord diagramF#F#    Bm/F#    A chord diagramF#F#    Bm/F#
Eb|-2-----2--------2-----2--------2-----2--------2-----2----------------------|}
Bb|-2-----3--------2-----3--------2-----3--------2-----3----------------------| }
Gb|-3-----4--------3-----4--------3-----4--------3-----4----------------------|  } x2
Db|-4-----4--------4-----4--------4-----4--------4-----4----------------------|  }
Ab|-4--------------4--------------4--------------4----------------------------| }
Eb|-2-----2--------2-----2--------2-----2--------2-----2----------------------|}


    A chord diagramF#F#    Bm/F#    A chord diagramF#F#    Bm/F#
Eb|-2-----2--------2-----2----------------------------------------------------|
Bb|-2-----3--------2-----3----------------------------------------------------|
Gb|-3-----4--------3-----4----------------------------------------------------|
Db|-4-----4--------4-----4----------------------------------------------------|
Ab|-4--------------4----------------------------------------------------------|
Eb|-2-----2--------2-----2----------------------------------------------------|


Break:


   Guitar 1 - Acoustic (Reversed)
    A chord diagramB minorBm    A chord diagramF#F#                        A chord diagramB minorBm    A chord diagramF#F#                        A chord diagramB minorBm
Eb|-2-2-2-2-2-2-2-2-2-2-2-2-2-2-2-2-2-2-2-2-2-2-2-2-2-2-2-2-2-2-2-2-2-2-2-----|
Bb|-3-3-3-2-2-2-2-2-2-2-2-2-2-2-2-2-3-3-3-2-2-2-2-2-2-2-2-2-2-2-2-2-3-3-3-----|
Gb|-4-4-4-3-3-3-3-3-3-3-3-3-3-3-3-3-4-4-4-3-3-3-3-3-3-3-3-3-3-3-3-3-4-4-4-----|
Db|-4-4-4-4-4-4-4-4-4-4-4-4-4-4-4-4-4-4-4-4-4-4-4-4-4-4-4-4-4-4-4-4-4-4-4-----|
Ab|-2-2-2-4-4-4-4-4-4-4-4-4-4-4-4-4-2-2-2-4-4-4-4-4-4-4-4-4-4-4-4-4-2-2-2-----|
Eb|-------2-2-2-2-2-2-2-2-2-2-2-2-2-------2-2-2-2-2-2-2-2-2-2-2-2-2-----------|

  |                                                                           |
  | Guitar 2 - Clean with Bottle Neck                                         |
  |       Slide slowly up whole neck                                          |
Eb|-------2/------------------------2/------------------------------2/--------|
Bb|---------------------------------------------------------------------------|
Gb|---------------------------------------------------------------------------|
Db|---------------------------------------------------------------------------|
Ab|---------------------------------------------------------------------------|
Eb|---------------------------------------------------------------------------|


Chorus 2: - "It's five to one"


    Played with Bottle Neck
        A chord diagramE MajorE                 A chord diagramB minorBm
Eb|---------------------------------------------------------------------------|
Bb|----/9----9---/12\--9\--7----7--/10-9-7------------------------------------|
Gb|-------9---9------/9--/7--7---7--------7-----------------------------------|
Db|-4/------9--9---------------7-----------7----------------------------------|
Ab|---------------------------------------------------------------------------|
Eb|---------------------------------------------------------------------------|


    A chord diagramE MajorE                         A chord diagramB minorBm
Eb|--------------12----12-----------------------------------------------------|
Bb|-/9----9---/12---/12---12\-7-----7---9\7--9\7--9\--------------------------|
Gb|----9---9--------------------7----7-----7----7-----------------------------|
Db|------9--9---------------------7---7---------------------------------------|
Ab|---------------------------------------------------------------------------|
Eb|---------------------------------------------------------------------------|


    A chord diagramE MajorE                    A chord diagramB minorBm
                         Slow slide down neck
Eb|---------------------------------------------------------------------------|
Bb|-/9----9---/12----9--------------------------------------------------------|
Gb|----9---9-----13\--9\-7\----------7\---------------------------------------|
Db|------9--9-----------------------------------------------------------------|
Ab|---------------------------------------------------------------------------|
Eb|---------------------------------------------------------------------------|


    A chord diagramE MajorE                         A chord diagramB minorBm
Eb|--------------12----12-----------------------------------------------------|
Bb|-/9----9---/12---/12---12\-7\5--7\5--7\5--7\5--7\5-------------------------|
Gb|----9---9---------------------7----7----7----7----7------------------------|
Db|------9--9-----------------------------------------------------------------|
Ab|---------------------------------------------------------------------------|
Eb|---------------------------------------------------------------------------|


    A chord diagramG minorGm              A chord diagramB minorBm              A chord diagramF minorFm              A chord diagramB minorBm
Eb|---------------------------------------------------------------------------|
Bb|---------3---------------3---------------1---------------3-----------------|
Gb|-----3-------3-------4-------4-------1-------1-------4-------4-------------|
Db|---5---5---5---5---4---4---4---4---3---3---3---3---4---4---4---4-----------|
Ab|-----------------2-------------------------------2-------------------------|
Eb|-3-------------------------------1-----------------------------------------|


Break: - Just Piano
          Chord as reference
    A chord diagramF#F#
Eb|-2-------------------------------------------------------------------------|
Bb|-2-------------------------------------------------------------------------|
Gb|-3-------------------------------------------------------------------------|
Db|-4-------------------------------------------------------------------------|
Ab|-4-------------------------------------------------------------------------|
Eb|-2-------------------------------------------------------------------------|


Break: - Electronic FX and drum rhythms


Eb|---------------------------------------------------------------------------|
Bb|---------------------------------------------------------------------------|
Gb|---------------------------------------------------------------------------|
Db|---------------------------------------------------------------------------|
Ab|---------------------------------------------------------------------------|
Eb|---------------------------------------------------------------------------|


Outro: - "Freedom of speech"
    Clean with Flanger
    A chord diagramF#11F#11                            A chord diagramEb5Eb5                                    -----|
Eb|---------------------------------------------------------------------------| |
Bb|---------0---------------0---------------0---------------0-----------------| |
Gb|-----3-------3-------3-------3-------3-------3-------3-------3-------------| |
Db|---4---4---4---4---4---4---4---4---2---2---2---2---2---2---2---2-----------| |
Ab|---------------------------------------------------------------------------| |
Eb|-2---------------2---------------0---------------0-------------------------| |
                                                                                |

    A chord diagramF#11F#11                            A chord diagramEb5Eb5                                         |
Eb|---------------------------------------------------------------------------| |
Bb|---------0---------------0---------------0---------------0-----------------| |
Gb|-----3-------3-------3-------3-------3-------3-------3-------3-------------| |
Db|---4---4---4---4---4---4---4---4---2---2---2---2---2---2---2---2-----------| |
Ab|---------------------------------------------------------------------------| |
Eb|-2---------------2---------------0---------------0-------------------------| |

                                                                                |  x2
    A chord diagramD MajorD aug                         A chord diagramA majorA dim                                         |
Eb|---------6---------------6-------------6---------------6-------------------| |
Bb|-----7-------7-------7-------7-----5-------5-------5-------5---------------| |
Gb|---7---7---7---7---7---7---7---------6---6---6-------6---6---6-------------| |
Db|-0---------------0---------------5---------------5-------------------------| |
Ab|-------------------------------0---------------0---------------------------| |
Eb|---------------------------------------------------------------------------| |
                                                                                |

    A chord diagramG minorGm                              A chord diagramB minorBm                                          |
Eb|---------------------------------------------------------------------------| |
Bb|---------3---------------3---------------2---------------2-----------------| |
Gb|-----3-------3-------3-------3-------4-------4-------4-------4-------------| |
Db|---5---5---5---5---5---5---5---5---4---4---4---4---4---4---4---4-----------| |
Ab|---------------------------------2---------------2-------------------------| |
Eb|-3---------------3---------------------------------------------------------| |
                                                                           -----|


   Distorted
    A chord diagramF#11F#11                            A chord diagramEb5Eb5                                    -----|
Eb|---------------------------------------------------------------------------| |
Bb|---------0---------------0---------------0---------------0-----------------| |
Gb|-----3-------3-------3-------3-------3-------3-------3-------3-------------| |
Db|---4---4---4---4---4---4---4---4---2---2---2---2---2---2---2---2-----------| |
Ab|---------------------------------------------------------------------------| |
Eb|-2---------------2---------------0---------------0-------------------------| |
                                                                                |

    A chord diagramF#11F#11                            A chord diagramEb5Eb5                                         |
Eb|---------------------------------------------------------------------------| |
Bb|---------0---------------0---------------0---------------0-----------------| |
Gb|-----3-------3-------3-------3-------3-------3-------3-------3-------------| |
Db|---4---4---4---4---4---4---4---4---2---2---2---2---2---2---2---2-----------| |
Ab|---------------------------------------------------------------------------| |
Eb|-2---------------2---------------0---------------0-------------------------| |

                                                                                |  x2
    A chord diagramD MajorD aug                         A chord diagramA majorA dim                                         |
Eb|---------6---------------6-------------6---------------6-------------------| |
Bb|-----7-------7-------7-------7-----5-------5-------5-------5---------------| |
Gb|---7---7---7---7---7---7---7---------6---6---6-------6---6---6-------------| |
Db|-0---------------0---------------5---------------5-------------------------| |
Ab|-------------------------------0---------------0---------------------------| |
Eb|---------------------------------------------------------------------------| |
                                                                                |

    A chord diagramG minorGm                              A chord diagramB minorBm                                          |
Eb|---------------------------------------------------------------------------| |
Bb|---------3---------------3---------------2---------------2-----------------| |
Gb|-----3-------3-------3-------3-------4-------4-------4-------4-------------| |
Db|---5---5---5---5---5---5---5---5---4---4---4---4---4---4---4---4-----------| |
Ab|---------------------------------2---------------2-------------------------| |
Eb|-3---------------3---------------------------------------------------------| |
                                                                           -----|


   Just Piano
   Chords just for reference
    A chord diagramF#F#    Bm/F#    A chord diagramF#F#    Bm/F#    A chord diagramF#F#    Bm/F#    A chord diagramF#F#    Bm/F#
Eb|-2-----2--------2-----2--------2-----2--------2-----2--------------2-------|
Bb|-2-----3--------2-----3--------2-----3--------2-----3--------------2-------|
Gb|-3-----4--------3-----4--------3-----4--------3-----4--------------3-------|
Db|-4-----4--------4-----4--------4-----4--------4-----4--------------4-------|
Ab|-4--------------4--------------4--------------4--------------------4-------|
Eb|-2-----2--------2-----2--------2-----2--------2-----2--------------2-------|


************************************

| /   Slide up
| \   Slide down

************************************

Almost there ...

Sign in to get your own page with links to favourite songs and more. You are just one click away...

Login with Facebook Login with Google