Log in

One click and you are in

Login with Facebook Login with Google

Why sign up and log in

Guitar Tabs Explorer
The Kursaal Flyers bass tabs for Little does she know

Bass tabs

--------------------------------------------------------------------------
                     Artist - Kursaal Flyers
                     *************************
                    Song - Little Does She Know
                    *****************************
                      Tabbed By - Ayreon77
                     **********************
--------------------------------------------------------------------------

Tuning = Standard

INTRO
******
G|----------|----------|----------|
D|----------|----------|----------|
A|-7--7-7---|-7--7-7---|-7--7-7---|
E|--------7-|--------7-|--------7-|


-------------------------
00:06

CHORUS
*******
G|----------|----------|----------|-----------|----------|--------|------------------|
D|----------|--------6-|-7--7-7---|-7--7-7--7-|-9--9-9---|-9--9-9-|-7----------------|
A|-7--7-7---|-7--7-7---|--------7-|-----------|--------9-|--------|----7-7-----------|
E|--------7-|----------|----------|-----------|----------|--------|---------7-7--7-7-|


G|----------|----------|----------|-----------|----------|--------|--------|--------|
D|----------|--------6-|-7--7-7---|-7--7-7--7-|-9--9-9---|-9--9-9-|-7------|--------|
A|-7--7-7---|-7--7-7---|--------7-|-----------|--------9-|--------|----7-7-|-7--7-7-|
E|--------7-|----------|----------|-----------|----------|--------|--------|--------|

-------------------------
00:37

VERSE 1
********
G|--------|--------|----------|-----------|-4--4-4-|-4--4-4-|--------|-----------|
D|--------|--------|-4--4-4---|-4--4-4--4-|--------|--------|-7--7-7-|-9--9-9--9-|
A|-4--4-4-|-4--4-4-|--------4-|-----------|--------|--------|--------|-----------|
E|--------|--------|----------|-----------|--------|--------|--------|-----------|


-------------------------
00:52

CHORUS
*******
G|----------|----------|----------|-----------|----------|--------|--------|--------|
D|----------|--------6-|-7--7-7---|-7--7-7--7-|-9--9-9---|-9--9-9-|-7------|--------|
A|-7--7-7---|-7--7-7---|--------7-|-----------|--------9-|--------|----7-7-|-7--7-7-|
E|--------7-|----------|----------|-----------|----------|--------|--------|--------|


-------------------------
01:07

VERSE 2
********
G|--------|--------|----------|-----------|-4--4-4-|-4--4-4-|--------|-----------|
D|--------|--------|-4--4-4---|-4--4-4--4-|--------|--------|-7--7-7-|-9--9-9--9-|
A|-4--4-4-|-4--4-4-|--------4-|-----------|--------|--------|--------|-----------|
E|--------|--------|----------|-----------|--------|--------|--------|-----------|


G|----------|----------|--------|-----------|-----------|-------------|-----------|-----------|
D|----------|----------|--------|-----------|-----------|-------------|-----------|-----------|
A|-4--4-4-6-|-4--4-4---|--------|-----------|-----------|----------s--|-----------|-----------|
E|----------|--------7-|-5--5-5-|-5--5-5--4-|-2--2-2--2-|-2--2-2--2\5-|-5--5-5--5-|-5--5-5--5-|

01:23
G|----------|----------|----------|-----------|-----------|-----------|--------|--------|
D|----------|----------|----------|-----------|-----------|-----------|--------|--------|
A|-4--4-4-6-|-4--4-4---|----------|-----------|-----------|-----------|-2--2-2-|-2--2-2-|
E|----------|--------7-|-5--5-5-0-|-5--5-5--4-|-2--2-2--2-|-2--2-2--2-|--------|--------|


-------------------------
01:38

CHORUS
*******
G|-------------|----------|----------|-----------|----------|--------|--------|----------------|
D|--s----------|--------6-|-7--7-7---|-7--7-7--7-|-9--9-9---|-9--9-9-|-7------|----------------|
A|-2\-7--7-7---|-7--7-7---|--------7-|-----------|--------9-|--------|----7-7-|----------------|
E|-----------7-|----------|----------|-----------|----------|--------|--------|-7--7-7-7-7-7-7-|


G|----------|----------|----------|-----------|----------|--------|--------|--------|
D|----------|--------6-|-7--7-7---|-7--7-7--7-|-9--9-9---|-9--9-9-|-7------|--------|
A|-7--7-7---|-7--7-7---|--------7-|-----------|--------9-|--------|----7-7-|-7--7-7-|
E|--------7-|----------|----------|-----------|----------|--------|--------|--------|


-------------------------
02:08

VERSE 3
********
G|----------|----------|--------|-----------|-----------|-------------|-----------|-----------|
D|----------|----------|--------|-----------|-----------|-------------|-----------|-----------|
A|-4--4-4-6-|-4--4-4---|--------|-----------|-----------|----------s--|-----------|-----------|
E|----------|--------7-|-5--5-5-|-5--5-5--4-|-2--2-2--2-|-2--2-2--2\5-|-5--5-5--5-|-5--5-5--5-|


G|----------|----------|----------|-----------|-----------|-----------|--------|--------|
D|----------|----------|----------|-----------|-----------|-----------|--------|--------|
A|-4--4-4-6-|-4--4-4---|----------|-----------|-----------|-----------|-2--2-2-|-2--2-2-|
E|----------|--------7-|-5--5-5-0-|-5--5-5--4-|-2--2-2--2-|-2--2-2--2-|--------|--------|


-------------------------
02:38
VIOLIN/TRUMPET
***************
G|--------|-----------|--------|-----------|----------|--------|--------|-----------|
D|--------|-----------|--------|-----------|----------|--------|--------|-----------|
A|--------|-----------|-2--2-2-|-2--2-2--2-|-4--4-4---|-4--4-4-|-2------|-4--4-4--4-|
E|-3--3-3-|-3--3-3--3-|--------|-----------|--------4-|--------|----3-3-|-----------|X2


-------------------------
03:09

CHORUS
*******
G|--------|--------|----------|--------|-6--6-6---|-6--6-6-|-4---------------|
D|--------|--------|-9--9-9---|-9--9-9-|--------6-|--------|----4------------|
A|-9--9-9-|-9--9-9-|--------9-|--------|----------|--------|-------4--4-4--4-|
E|--------|--------|----------|--------|----------|--------|-----------------|X3

Almost there ...

Sign in to get your own page with links to favourite songs and more. You are just one click away...

Login with Facebook Login with Google